Oops, an error
Loading. Please wait.
We have an official Breed tab made by UG professional guitarists. Check out the tab »
×
by Nirvana
2,793 views 9 this week
6 commentsread comments
1 2 3 4 5
x 3
add to favorites
×
Save as Personal and add changes to this tab that will be seen only by you. Learn more ›
×
You can save this tab as Personal to edit and correct it or add notes. All changes will be seen only by you. Learn more »
launch autoscroll
font size
0
reset
how to read this tab
guitar tuner
backing track
0:00
0:00
edit
Autoscroll
slow
fast
+/-
esc
set tempo
stop
Author
R.I.P Kurt Cobain, the last true rock star.

First tab!

Email me at: randomsmasher@gmail.com

I'm almost positive this is correct, there isn't really one this right so far...

Tuning: Standard (E A D G B e)

Heavy Distortion


[Riff/Intro]

e|-------------------------|
B|-------------------------|
G|-------------2/3---------|
D|----4-4---4--2/3--2------| 
A|----4-4---4-------2------|
E|-------------------------|(x16)


[Bridge]

e|--------------------------------------------------------|
B|--------------------------------------------------------|
G|----11-11-11-11-11-11-11-11-11-11-11-11-11-11----9^-----|
D|----11-11-11-11-11-11-11-11-11-11-11-11-11-11-----------| 
A|--------------------------------------------------------|
E|--------------------------------------------------------|(x4)


[Chorus]

e|------------------------|
B|------------------------|
G|-7-7--------5-5-4-4-----|
D|-7-7--7-7---5-5-4-4-----|
A|-5-5--7-7---3-3-2-2-----|
E|------5-5---------------|(x4)


[Solo]

e|---------------------------------------------------------|
B|---------------------------------------------------------|
G|--11--11-11-11-11-11-11-11-11-11-11-11-11-11/10/9/8/7/6--|
D|--11--11-11-11-11-11-11-11-11-11-11-11-11-11/10/9/8/7/6--|
A|---------------------------------------------------------|
E|---------------------------------------------------------|

e|---------------------------------------------------------|
B|---------------------------------------------------------|
G|--14--14-14-14-14-14-14-14-14-14-14-14-14-14/13/12/11/10-|
D|--14--14-14-14-14-14-14-14-14-14-14-14-14-14/13/12/11/10-|
A|---------------------------------------------------------|
E|---------------------------------------------------------|

e|---------------------------------------------------------|
B|---------------------------------------------------------|
G|--17--17-17-17-17-17-17-17-17-17-17-17-17-17/16/15/14/13-|
D|--17--17-17-17-17-17-17-17-17-17-17-17-17-17/16/15/14/13-|
A|---------------------------------------------------------|
E|---------------------------------------------------------|

e|---------------------------------------------------------|
B|---------------------------------------------------------|
G|--21--21-21-21-21-21-21-21-21-21-21-21-22-22-22-22-22-22-|
D|--21--21-21-21-21-21-21-21-21-21-21-21-22-22-22-22-22-22-|
A|---------------------------------------------------------|
E|---------------------------------------------------------|


Ordering:

[Riff/Intro]
[Bridge]
[Chorus]
[Riff]
[Bridge]
[Chorus]
[Solo]
[Chorus]
[Riff]

************************************

| /  Slide up
| ^  bend up

************************************

            
            
Suggest correction
Creating personal tab
Creating personal tab
You can edit any tab online and save it as your Personal.

You can edit, replace or remove any tab part or add personal notes – all changes will be seen only by you.

Personal tabs can be accessed anytime from any device, even offline.
Learn more »
Give kudos to tab author, rate the tab!
1 2 3 4 5
comments
print report bad tab
6 comments total. Showing first comments.
0 reply
mitchrosko 190 Oct 27, 2011 01:50 PM

Didn't even go past the intro because its disgusting wrong.

0 reply
mitchrosko 190 Oct 27, 2011 01:50 PM

disgustingly*

0 reply
completesddict 51 Oct 27, 2011 03:22 PM

Wtf are u playing? either your guitar is not tuned, you aren't timing it right, or your listening to the wrong song

guest
You may want to rate the tab now too:
select rating
Wanna post a correction for this tab? Suggest correction