Oops, an error
Loading. Please wait.

Come As You Are Tab

version 1
2,078,995 views 5,979 this week
158 commentsread comments
1 2 3 4 5
accurate
x 256
add to favorites
launch autoscroll
font size
0
reset
how to read this tab
guitar tuner
Tab Pro tools
  • play this tab
  • loop segment
  • change instrument
  • show fretboard
  • metronome
×
Best way to learn
"Come As You Are"
Autoscroll
slow
fast
+/-
esc
set tempo
stop
Contributor
Tuning
D G C F A D
[Intro]

D|-------------------------------------------|
A|-------------------------------------------|
F|-------------------------------------------| x4
C|-------------------------------------------|
G|--------------0---0----------2------2-0----|
D|----0-0-1--2----2---2-2-1-0----0--0------1-|


[Verse]

D|-------------------------------------------|
A|-------------------------------------------|
F|-------------------------------------------|  x8 
C|-------------------------------------------|
G|--------------0---0----------2------2-0----|
D|----0-0-1--2----2---2-2-1-0----0--0------1-|


[Bridge 1]  

D|---------0-----------------------------------|
A|---------0-----------------------------------|
F|--------------------2--2--2--2----2--2--2----| x4
C|--4-4-4-----4-4-4---2--2--2--2----2--2--2----|
G|--4-4-4-----4-4-4---0--0--0--0----0--0--0----|
D|--2-2-2-----2-2-2----------------------------|


[Verse]

D|-------------------------------------------|
A|-------------------------------------------|
F|-------------------------------------------|  x4 
C|-------------------------------------------|
G|--------------0---0----------2------2-0----|
D|----0-0-1--2----2---2-2-1-0----0--0------1-|


[Bridge 1] 

D|---------0-----------------------------------|
A|---------0-----------------------------------|
F|--------------------2--2--2--2----2--2--2----| x4 
C|--4-4-4-----4-4-4---2--2--2--2----2--2--2----|
G|--4-4-4-----4-4-4---0--0--0--0----0--0--0----|
D|--2-2-2-----2-2-2----------------------------|


[Bridge 2]

D|--------------------------------------|
A|-------------------3-3-3-3--3-3-3-----|
F|--4-4-4-4~-4-4-4---2-2-2-2--2-2-2-----| x4
C|--4-4-4-4~-4-4-4---0-0-0-0--0-0-0-----| 
G|--2-2-2-4~-2-2-2---0-0-0-0--0-0-0-----|
D|--------------------------------------|


[Instrumental]

D|-------------------------------------------|
A|-------------------------------------------|
F|-------------------------------------------| x2
C|-------------------------------------------|
G|--------------0---0----------2------2-0----|
D|----0-0-1--2----2---2-2-1-0----0--0------1-|


[Solo]

D|-------------------------------------------------------|      
A|-------------------------------------------------------|
F|-6~--9~-11~/6--6~--9~-11~/6--6~--9~-11-11b-11-11-9-9/6-|         x4
C|-------------------------------------------------------|
G|-------------------------------------------------------|
D|-------------------------------------------------------|


[Bridge 1]   

D|---------0-----------------------------------|
A|---------0-----------------------------------|
F|--------------------2--2--2--2----2--2--2----| x4 
C|--4-4-4-----4-4-4---2--2--2--2----2--2--2----|
G|--4-4-4-----4-4-4---0--0--0--0----0--0--0----|
D|--2-2-2-----2-2-2----------------------------|


[Bridge 2]

D|--------------------------------------|
A|-------------------3-3-3-3--3-3-3-----|
F|--4-4-4-4~-4-4-4---2-2-2-2--2-2-2-----|  x6
C|--4-4-4-4~-4-4-4---0-0-0-0--0-0-0-----| 
G|--2-2-2-4~-2-2-2---0-0-0-0--0-0-0-----|
D|--------------------------------------|


[Outro]

D|-------------------------------------------|
A|-------------------------------------------|
F|-------------------------------------------| x2 
C|-------------------------------------------|
G|--------------0---0----------2------2-0----|
D|----0-0-1--2----2---2-2-1-0----0--0------1-|

D|---------------|
A|---------------|
F|---------------| 
C|---------------|
G|---------------|
D|----0-0-1--2---|


***********************************
| /   Slide up
| ~   Vibrato
***********************************
comments
print report bad tab
158 comments total. Showing first comments. show 1 bad comment
+30 reply
Fraser10 wrote on March 28 2003, 12:00 am

Not Drop D

+9 reply
hi72 wrote on April 2 2003, 12:00 am

Messes up on the Main Riff a little bit
it goes like this.

Main Riff
D|-------------------------------------|
A|-------------------------------------|
F|-------------------------------------|
C|-------------------------------------|
G|--------------0---0---------2---2----|
D|----0-0-1--2----2---2-2-1-0--0-0--0-1|

There it is.

I want to post or [tab]
guest
You may want to rate the tab now too:
select rating
Please do not post tabs as comments. Select "correction" instead!