Oops, an error
Loading. Please wait.

Come As You Are Tab

version 2
version 2

Video

by Nirvana
119,538 views 84 this week
47 commentsread comments
1 2 3 4 5
x 53
add to favorites
launch autoscroll
font size
0
reset
how to read this tab
guitar tuner
backing track
0:00
0:00
×
Best way to learn
"Come As You Are"
Autoscroll
slow
fast
+/-
esc
set tempo
stop
[Intro/verse]
e|-----------------------------------|
B|-----------------------------------|       
G|-----------------------------------|        
D|-----------------------------------|
A|---------0---0---------2---2---2---|
E|-0-0-1-2---2---2-2-1-0---0---0---0-|
      
[Chorus] 
   F#    G#        
e|---------------------|
B|---------------------|
G|---------------------|   
D|-4-4-4/6---6-6-6-6-6-|    
A|-4-4-4/6---6-6-6-6-6-|
E|-2-2-2/4---4-4-4-4-4-|

[Bridge]
   A#    C# 
e|------------------------|
B|------------------------|            
G|------------------------|
D|-8-8-8/11---11-11-11-11-|
A|-8-8-8/11---11-11-11-11-|
E|-6-6-6/9----9--9--9--9--|

[Solo]
e|-------------------------------------------|
B|-------------------------------------------|
G|-6-6-6--[9-11-6-9-11-6-9-11 11/14--11-9-6]-|          
D|-------------------------------------------|          
A|-------------------------------------------|
E|-------------------------------------------|


************************************

| /  Slide up 

************************************
Suggest correction
comments
print report bad tab
47 comments total. Showing first comments.
0 reply
skaterpim9 145 Nov 25, 2001 07:00 PM

great tab if u got the solo 4 smellz lik teen spirit e-mail it 2 me@ skaterpim@aol.com

0 reply
wazzock88 55 Dec 02, 2001 07:00 PM

at the end of the intro it is wrong

0 reply
sinner 35 Feb 08, 2002 07:00 PM

beautiful lyrics

guest
You may want to rate the tab now too:
select rating
Wanna post a correction for this tab? Suggest correction