Oops, an error
Loading. Please wait.
We have an official Come As You Are tab made by UG professional guitarists. Check out the tab »
×
by Nirvana
94,268 views 249 this week
11 commentsread comments
1 2 3 4 5
x 42
add to favorites
×
Save as Personal and add changes to this tab that will be seen only by you. Learn more ›
×
You can save this tab as Personal to edit and correct it or add notes. All changes will be seen only by you. Learn more »
launch autoscroll
font size
0
reset
guitar tuner
backing track
0:00
0:00
edit
Autoscroll
slow
fast
+/-
esc
set tempo
stop
COME AS YOU ARE (Bassline)
As recorded by Nirvana


Transcribed by Gary Ramsey


 

Gtr I (E A D G) - 'Staff'


   Q=120
  4/4
   Gtr I
   H    E E E E   W          W          W
G|--------------|----------|----------|------|
D|--------0-0-1-|----------|----------|------|
A|--------------|----------|----------|------|
E|--------------|----------|----------|------|


   H    E E E E   Q  E E E E E E   E E E E +S  S E E E   Q  E E E E E E
G|--------------|----0---0-------|---2-----------2-----|----0---0--------|
D|--------0-0-1-|-2----2---2-2-1-|-0---0-0-(0)-----0-1-|-2----2---2-2-1--|
A|--------------|----------------|---------------------|-----------------|
E|--------------|----------------|---------------------|-----------------|


   E E E E +S  S E E E   Q  E E E E E E   E E E E +S  S E E E   Q  E E E E E E
G|---2-----------2-----|----0---0-------|---2-----------2-----|----0---0-------|
D|-0---0-0-(0)-----0-1-|-2----2---2-2-1-|-0---0-0-(0)-----0-1-|-2----2---2-2-1-|
A|---------------------|----------------|---------------------|----------------|
E|---------------------|----------------|---------------------|----------------|


   E E E E +S  S E E E   Q  E E E E E E   E E E E +S  S E E E   Q  E E E E E E
G|---2-----------2-----|----0---0-------|---2-----------2-----|----0---0-------|
D|-0---0-0-(0)-----0-1-|-2----2---2-2-1-|-0---0-0-(0)-----0-1-|-2----2---2-2-1-|
A|---------------------|----------------|---------------------|----------------|
E|---------------------|----------------|---------------------|----------------|


   E E E E +S  S E E E   Q  E E E E E E   E E E E +S  S E E E   Q  E E E E E E
G|---2-----------2-----|----0---0-------|---2-----------2-----|----0---0-------|
D|-0---0-0-(0)-----0-1-|-2----2---2-2-1-|-0---0-0-(0)-----0-1-|-2----2---2-2-1-|
A|---------------------|----------------|---------------------|----------------|
E|---------------------|----------------|---------------------|----------------|


   E E E E +S  S E E E   Q  E E E E E E   E E E E +S  S E E E   Q  E E E E E E
G|---2-----------2-----|----0---0-------|---2-----------2-----|----0---0-------|
D|-0---0-0-(0)-----0-1-|-2----2---2-2-1-|-0---0-0-(0)-----0-1-|-2----2---2-2-1-|
A|---------------------|----------------|---------------------|----------------|
E|---------------------|----------------|---------------------|----------------|


   E E E E +S  S E E E   Q  +S  S E +E  E +E  E
G|---2-----------2-----|------------------------|
D|-0---0-0-(0)-----0-1-|------------------------|
A|---------------------|------------------------|
E|---------------------|-0--(0)---0-(0)-0-(0)-2-|


   E E E E E E E E   Q  +S  S E +E  E +E  E
G|-----------------|-------------------------|
D|-----------------|-------------------------|
A|-----------------|-------------------------|
E|-3-3-3-3-3-3-3-3-|-0--(0)---0-(0)-0-(0)-2--|


   E E E E E E E E   Q  +S  S E +E  E +E  E
G|-----------------|------------------------|
D|-----------------|------------------------|
A|-----------------|------------------------|
E|-3-3-3-3-3-3-3-3-|-0--(0)---0-(0)-0-(0)-2-|


   E E E E E E E E   Q  +S  S E +E  E +E  E
G|-----------------|------------------------|
D|-----------------|------------------------|
A|-----------------|------------------------|
E|-3-3-3-3-3-3-3-3-|-0--(0)---0-(0)-0-(0)-2-|


   E E E E E E E E   Q  E E E E E E   E E E E +S  S E E E   Q  E E E E E E
G|-----------------|----------------|---------------------|-----------------|
D|-----------------|----5---5-------|---7-----------7-----|----5---5--------|
A|-------------5-6-|-7----7---7-7-6-|-5---5-5-(5)-----5-6-|-7----7---7-7-6--|
E|-3-3-3-3-3-------|----------------|---------------------|-----------------|


   E E E E +S  S E E E   Q  E E E E E E   E E E E +S  S E E E   Q  E E E E E E
G|---------------------|----------------|---------------------|----------------|
D|---7-----------7-----|----5---5-------|---7-----------7-----|----5---5-------|
A|-5---5-5-(5)-----5-6-|-7----7---7-7-6-|-5---5-5-(5)-----5-6-|-7----7---7-7-6-|
E|---------------------|----------------|---------------------|----------------|


   E E E E +S  S E E E   Q  +S  S E +E  E +E  E
G|---------------------|------------------------|
D|---7-----------7-----|------------------------|
A|-5---5-5-(5)-----5-6-|------------------------|
E|---------------------|-0--(0)---0-(0)-0-(0)-2-|


   E E E E E E E E   Q  +S  S E +E  E +E  E
G|-----------------|-------------------------|
D|-----------------|-------------------------|
A|-----------------|-------------------------|
E|-3-3-3-3-3-3-3-3-|-0--(0)---0-(0)-0-(0)-2--|


   E E E E E E E E   Q  +S  S E +E  E +E  E
G|-----------------|------------------------|
D|-----------------|------------------------|
A|-----------------|------------------------|
E|-3-3-3-3-3-3-3-3-|-0--(0)---0-(0)-0-(0)-2-|


   E E E E E E E E   Q  +S  S E +E  E +E  E
G|-----------------|------------------------|
D|-----------------|------------------------|
A|-----------------|------------------------|
E|-3-3-3-3-3-3-3-3-|-0--(0)---0-(0)-0-(0)-2-|


   E E E E E E E E   E E E E E E E E   E E E E E E E E   E E E E E E E E
G|-----------------|-----------------|-----------------|-----------------|
D|-----------------|-----------------|-----------------|-----------------|
A|-----------------|-----------------|-----------------|-0-0-0-0-0-0-0-2-|
E|-3-3-3-3-3-3-3-4-|-5-5-5-5-5-5-5-7-|-8-8-8-8-8-8-6-3-|-----------------|


   E E E E E E E E   E E E E E E E E   E E E E E E E E   E E E E E E E E
G|-----------------|-----------------|-----------------|-----------------|
D|-----------------|-----------------|-----------------|-----------------|
A|-3-3-3-3-3-3-1---|-0-0-0-0-0-0-0-2-|-3-3-3-3-3-3-1---|-0-0-0-0-0-0-0-2-|
E|---------------3-|-----------------|---------------3-|-----------------|


   E E E E E E E E   Q  E E E E E E   E E E E +S  S E E E   Q  E E E E E E
G|-----------------|----------------|---------------------|-----------------|
D|-----------------|----5---5-------|---7-----------7-----|----5---5--------|
A|-3-3-3-3-3-3-5-6-|-7----7---7-7-6-|-5---5-5-(5)-----5-6-|-7----7---7-7-6--|
E|-----------------|----------------|---------------------|-----------------|


   E E E E +S  S E E E   Q  E E E E E E   E E E E +S  S E E E   Q  E E E E E E
G|---------------------|----------------|---------------------|----------------|
D|---7-----------7-----|----5---5-------|---7-----------7-----|----5---5-------|
A|-5---5-5-(5)-----5-6-|-7----7---7-7-6-|-5---5-5-(5)-----5-6-|-7----7---7-7-6-|
E|---------------------|----------------|---------------------|----------------|


   E E E E +S  S E E E   Q  E E E E E E   E E E E +S  S E E E   Q  E E E E E E
G|---------------------|----------------|---------------------|----------------|
D|---7-----------7-----|----5---5-------|---7-----------7-----|----5---5-------|
A|-5---5-5-(5)-----5-6-|-7----7---7-7-6-|-5---5-5-(5)-----5-6-|-7----7---7-7-6-|
E|---------------------|----------------|---------------------|----------------|


   E E E E +S  S E E E   Q  E E E E E E   E E E E +S  S E E E   Q  E E E E E E
G|---------------------|----------------|---------------------|----------------|
D|---7-----------7-----|----5---5-------|---7-----------7-----|----5---5-------|
A|-5---5-5-(5)-----5-6-|-7----7---7-7-6-|-5---5-5-(5)-----5-6-|-7----7---7-7-6-|
E|---------------------|----------------|---------------------|----------------|


   E E E E +S  S E E E   Q  E E E E E E   E E E E +S  S E E E   Q  E E E E E E
G|---------------------|----------------|---------------------|----------------|
D|---7-----------7-----|----5---5-------|---7-----------7-----|----5---5-------|
A|-5---5-5-(5)-----5-6-|-7----7---7-7-6-|-5---5-5-(5)-----5-6-|-7----7---7-7-6-|
E|---------------------|----------------|---------------------|----------------|


   E E E E +S  S E E E   Q  +S  S E +E  E +E  E
G|---------------------|------------------------|
D|---7-----------7-----|------------------------|
A|-5---5-5-(5)-----5-6-|------------------------|
E|---------------------|-0--(0)---0-(0)-0-(0)-2-|


   E E E E E E E E   Q  +S  S E +E  E +E  E
G|-----------------|-------------------------|
D|-----------------|-------------------------|
A|-----------------|-------------------------|
E|-3-3-3-3-3-3-3-3-|-0--(0)---0-(0)-0-(0)-2--|


   E E E E E E E E   Q  +S  S E +E  E +E  E
G|-----------------|------------------------|
D|-----------------|------------------------|
A|-----------------|------------------------|
E|-3-3-3-3-3-3-3-3-|-0--(0)---0-(0)-0-(0)-2-|


   E E E E E E E E   Q  +S  S E +E  E +E  E
G|-----------------|------------------------|
D|-----------------|------------------------|
A|-----------------|------------------------|
E|-3-3-3-3-3-3-3-3-|-0--(0)---0-(0)-0-(0)-2-|


   E E E E E E E E   E E E E E E E E   E E E E E E E E   E E E E E E E E
G|-----------------|-----------------|-----------------|-----------------|
D|-----------------|-----------------|-----------------|-----------------|
A|-----------------|-----------------|-----------------|-0-0-0-0-0-0-0-2-|
E|-3-3-3-3-3-3-3-4-|-5-5-5-5-5-5-5-7-|-8-8-8-8-8-8-6-3-|-----------------|


   E E E E E E E E   E E E E E E E E   E E E E E E E E   E E E E E E E E
G|-----------------|-----------------|-----------------|-----------------|
D|-----------------|-----------------|-----------------|-----------------|
A|-3-3-3-3-3-3-1---|-0-0-0-0-0-0-0-2-|-3-3-3-3-3-3-1---|-0-0-0-0-0-0-0-2-|
E|---------------3-|-----------------|---------------3-|-----------------|


   E E E E E E E E   E E E E E E E E   E E E E E E E E   E E E E E E E E
G|-----------------|-----------------|-----------------|-----------------|
D|-----------------|-----------------|-----------------|-----------------|
A|-3-3-3-3-3-3-1---|-0-0-0-0-0-0-0-2-|-3-3-3-3-3-3-2---|-0-0-0-0-0-0-0-2-|
E|---------------3-|-----------------|---------------3-|-----------------|


   E E E E E E E E   Q  E E E E E E   E E E E +S  S E E E   Q  E E E E E E
G|-----------------|----------------|---------------------|-----------------|
D|-----------------|----5---5-------|---7-----------7-----|----5---5--------|
A|-3-3-3-3-3-3-5-6-|-7----7---7-7-6-|-5---5-5-(5)-----5-6-|-7----7---7-7-6--|
E|-----------------|----------------|---------------------|-----------------|


   E E E E +S  S E E E   Q  E E E E E E   E E E E +S  S E E E   Q  E E E E E E
G|---------------------|----------------|---------------------|----------------|
D|---7-----------7-----|----5---5-------|---7-----------7-----|----5---5-------|
A|-5---5-5-(5)-----5-6-|-7----7---7-7-6-|-5---5-5-(5)-----5-6-|-7----7---7-7-6-|
E|---------------------|----------------|---------------------|----------------|


   E E E E +S  S E E E   W          +W           +W
G|---------------------|----------|------------|--------|
D|---7-----------7-----|----------|------------|--------|
A|-5---5-5-(5)-----5-6-|-7--------|-(7)--------|-(7)----|
E|---------------------|----------|------------|--------|


   +H     +Q..   S
G|--------------------*|
D|--------------------*|
A|-(7)----(7)---------*|
E|--------------------*| 


************************************

| (n)  Ghost note 

************************************

            
            
Suggest correction
Creating personal tab
Creating personal tab
You can edit any tab online and save it as your Personal.

You can edit, replace or remove any tab part or add personal notes – all changes will be seen only by you.

Personal tabs can be accessed anytime from any device, even offline.
Learn more »
comments
print report bad tab
11 comments total. Showing first comments.
+2 reply
HawkBassNelson 91 May 18, 2010 02:21 PM

great tab! 5*!

+6 reply
maxpowweer 639 Oct 05, 2011 07:02 AM

Good tab mate, though I don't think it was necessary you wrote every single note.

0 reply
Shackleford110 121 Jun 16, 2014 04:03 PM

This is An amazing tab, but could you please add what part of the tab it is like the intro chorus verse that kind of stuff but besides that this is a great tab 5 stars

guest
You may want to rate the tab now too:
select rating
Wanna post a correction for this tab? Suggest correction