Oops, an error
Loading. Please wait.
We have an official Come As You Are tab made by UG professional guitarists. Check out the tab »
×
by Nirvana
79,259 views 69 this week
37 commentsread comments
1 2 3 4 5
x 68
add to favorites
×
Save as Personal and add changes to this tab that will be seen only by you. Learn more ›
×
You can save this tab as Personal to edit and correct it or add notes. All changes will be seen only by you. Learn more »
save as personal
new!
launch autoscroll
font size
0
reset
how to read this tab
guitar tuner
backing track
0:00
0:00
Autoscroll
slow
fast
+/-
esc
set tempo
stop
Author
[Intro]
e|--------------------------------|
B|--------------------------------|
G|--------------------------------|
D|--------------------------------|
A|----------0---0---------2-----2-|
E|-0-0-1--2---2---2-2-1-0---0-0---|

[Chorus]    
(Gtr 1)
e|-----------------------------------------------------------------------|
B|-----------------------------------------------------------------------|
G|-----------------------------------------------------------------------|(2x)
D|-4-4-4-4/7-7-7-7-5-4-4-4-4/7-7-7-7-5-4-4-4-4/7-7-7-7-5-4-4-4-4/7-7-7-7-|
A|-4-4-4-4/7-7-7-7-5-4-4-4-4/7-7-7-7-5-4-4-4-4/7-7-7-7-5-4-4-4-4/7-7-7-7-|
E|-2-2-2-2/5-5-5-5-3-2-2-2-2/5-5-5-5-3-2-2-2-2/5-5-5-5-3-2-2-2-2/5-5-5-5-|

(Gtr 2)
e|-------------------------------------------------------|
B|------0-----------------------0------------------------|
G|------4---0h2-2-2-2---2-0-----4---0h2-2-2-2---2-0------|(2x)
D|---4-----------------------4-----------------------4---|
A|-------------------------------------------------------|
E|-------------------------------------------------------|

[Verse]
e|--------------------------------|
B|--------------------------------|
G|--------------------------------|
D|--------------------------------|
A|----------0---0---------2-----2-|
E|-0-0-1--2---2---2-2-1-0---0-0---|

[Chorus]    
(Gtr 1)
e|-----------------------------------------------------------------------|
B|-----------------------------------------------------------------------|
G|-----------------------------------------------------------------------|(2x)
D|-4-4-4-4/7-7-7-7-5-4-4-4-4/7-7-7-7-5-4-4-4-4/7-7-7-7-5-4-4-4-4/7-7-7-7-|
A|-4-4-4-4/7-7-7-7-5-4-4-4-4/7-7-7-7-5-4-4-4-4/7-7-7-7-5-4-4-4-4/7-7-7-7-|
E|-2-2-2-2/5-5-5-5-3-2-2-2-2/5-5-5-5-3-2-2-2-2/5-5-5-5-3-2-2-2-2/5-5-5-5-|

(Gtr 2)
e|-------------------------------------------------------|
B|------0-----------------------0------------------------|
G|------4---0h2-2-2-2---2-0-----4---0h2-2-2-2---2-0------|(2x)
D|---4-----------------------4-----------------------4---|
A|-------------------------------------------------------|
E|-------------------------------------------------------|

[Bridge]
(Gtr 1)
e|-----------------------------------------|
B|-----------------------------------------|
G|-----------------------------------------|(2x)
D|-9-9-9-9/12-12-12-12-9-9-9-9/12-12-12-12-|
A|-9-9-9-9/12-12-12-12-9-9-9-9/12-12-12-12-|
E|-7-7-7-7/10-10-10-10-7-7-7-7/10-10-10-10-|

(Gtr 2)
e|-----------------------------------------|
B|-----------------------------------------|
G|--4-4-4-4/7-7-7-7-0-4-4-4-4/7-7-7-7-0----|(2x)
D|--4-4-4-4/7-7-7-7-0-4-4-4-4/7-7-7-7-0----|
A|--2-2-2-2/5-5-5-5-0-2-2-2-2/5-5-5-5-0----|
E|-----------------------------------------|

[Solo]
e|---------------------------------------|
B|-----------5--7-----5--7-----5--7--7^--|
G|--6-6-6-6--------6--------6------------|(4x)
D|---------------------------------------|
A|---------------------------------------|
E|---------------------------------------|

[Chorus]    
(Gtr 1)
e|-----------------------------------------------------------------------|
B|-----------------------------------------------------------------------|
G|-----------------------------------------------------------------------|(2x)
D|-4-4-4-4/7-7-7-7-5-4-4-4-4/7-7-7-7-5-4-4-4-4/7-7-7-7-5-4-4-4-4/7-7-7-7-|
A|-4-4-4-4/7-7-7-7-5-4-4-4-4/7-7-7-7-5-4-4-4-4/7-7-7-7-5-4-4-4-4/7-7-7-7-|
E|-2-2-2-2/5-5-5-5-3-2-2-2-2/5-5-5-5-3-2-2-2-2/5-5-5-5-3-2-2-2-2/5-5-5-5-|

(Gtr 2)
e|-------------------------------------------------------|
B|------0-----------------------0------------------------|
G|------4---0h2-2-2-2---2-0-----4---0h2-2-2-2---2-0------|(2x)
D|---4-----------------------4-----------------------4---|
A|-------------------------------------------------------|
E|-------------------------------------------------------|

[Bridge]
(Gtr 1)
e|-----------------------------------------|
B|-----------------------------------------|
G|-----------------------------------------|(2x)
D|-9-9-9-9/12-12-12-12-9-9-9-9/12-12-12-12-|
A|-9-9-9-9/12-12-12-12-9-9-9-9/12-12-12-12-|
E|-7-7-7-7/10-10-10-10-7-7-7-7/10-10-10-10-|

(Gtr 2)
e|-----------------------------------------|
B|-----------------------------------------|
G|--4-4-4-4/7-7-7-7-0-4-4-4-4/7-7-7-7-0----|(2x)
D|--4-4-4-4/7-7-7-7-0-4-4-4-4/7-7-7-7-0----|
A|--2-2-2-2/5-5-5-5-0-2-2-2-2/5-5-5-5-0----|
E|-----------------------------------------|

[Outro]
(Gtr 1)
e|-------------------------------------------------------------------------|
B|-------------------------------------------------------------------------|
G|-------------------------------------------------------------------------|
D|---4---------------------------------------------------------------------|
A|---4---------------------------------------------------------------------|
E|---2---------------------------------------------------------------------|

(Gtr 2)
e|-------------------------------------------------------------------------|
B|---0---------------------------------------------------------------------|
G|-------------------------------------------------------------------------|
D|-------------------------------------------------------------------------|
A|-------------------------------------------------------------------------|
E|-------------------------------------------------------------------------|



************************************

| /  Slide up
| h  Hammer-on
| ^  

************************************
Suggest correction
comments
print report bad tab
37 comments total. Showing first comments.
0 reply
tiftcte 595 Mar 18, 2004 07:00 PM

ok, wats rong with the intro anyway?

0 reply
linkinpark821 20 Jun 11, 2004 08:00 PM

the intro's right

-1 reply
SkaterD2002 600 Jul 24, 2004 08:00 PM

dumbpunk. I think your name represents you really good. Its standard jackass. Get the tab book of Nevermind Album.

guest
You may want to rate the tab now too:
select rating
Wanna post a correction for this tab? Suggest correction