Oops, an error
Loading. Please wait.

Curmudgeon tab

version 1
version 1

Whole song

Interactive

by Nirvana
11,956 views 27 this week
10 commentsread comments
1 2 3 4 5
x 8
add to favorites
×
Save as Personal and add changes to this tab that will be seen only by you. Learn more ›
×
You can save this tab as Personal to edit and correct it or add notes. All changes will be seen only by you. Learn more »
launch autoscroll
font size
0
reset
how to read this tab
guitar tuner
edit
Autoscroll
slow
fast
+/-
esc
set tempo
stop
Author
CURMUDGEON 
from Lithium single                                     

Tuning: Standard ½step down

INTRO And VERSES
A#
-----------------I
-----------------I
---------------7-I
-----------------I
8b9--8b9---8-----I
6b7--6b7---6-0---I

PRE-CHORUS 
F#5              C5
----------------I----------------I
----------------I----------------I
----------------I5-5-5-5-5-5-5---I
4-4-4-4-4-4-4-0-I5-5-5-5-5-5-5-0-I
4-4-4-4-4-4-4-0-I3-3-3-3-3-3-3-0-I
2-2-2-2-2-2-2-0-I--------------0-I

CHORUS
E5      D5
-------------------I
--------3-----3----I
--------2b3r2-2b3r2I
2---2--------------I
2---2--------------I
0---0--------------I

SOLO: IMPROVISED ANTI-SOLO :P

When I play the song, I improvise it totally but with the phaser on it sounds just like the real record. 
Try to imitate the rhythm on the recording, play some barred figures
high up the neck like this:

------------I-------18--I
---13----12-I--14---18--I
---13----12-I--14---18--I
---13----12-I--14---18--I
------------I-----------I
------------I-----------I

            
            
Suggest correction
Creating personal tab
Creating personal tab
You can edit any tab online and save it as your Personal.

You can edit, replace or remove any tab part or add personal notes – all changes will be seen only by you.

Personal tabs can be accessed anytime from any device, even offline.
Learn more »
comments
print report bad tab
10 comments total. Showing first comments.
-1 reply
NiRvanAcobain 10 Dec 20, 2003 07:00 PM

Curmudgeon is the best single by Nirvana and kicks alot of songs ass.

0 reply
White Pony 10 Aug 23, 2006 07:36 AM

You just stole it from the nirvanaclub site...pretty lame especially cuz' you didn't even mention the site at all

0 reply
C_majzer 82 Mar 21, 2007 05:27 PM

since I don't feel like waiting for my tab to show, cuz it may not, I'll just tab it out here (solo only) try it -- it's 200% currect!
(w/ phase shifter ON)
Eb-5p4----------------------------------------------------------
Bb-----12-11-13-12-----------------------------10^(hold bend &--
Gb-----12-11-13-12-/4--5~-6--7~-8--9~/13-10(10)10^tremolo pick)-
Db--------------------------------------------------------------
Ab--------------------------------------------------------------
Eb--------------------------------------------------------------

Eb------------------------|
Bb-(9)x-------------------|
Gb-(9)x-------------------|
Db------(pick scrape)-----|
Ab------x///////x\\\\\\\\-|
Eb------x///////x\\\\\\\\-|

guest
You may want to rate the tab now too:
select rating
Wanna post a correction for this tab? Suggest correction