Oops, an error
Loading. Please wait.

Do Re Mi Tab

version 2
version 2

Whole song

Interactive

Video

by Nirvana
14,664 views 9 this week
2 commentsread comments
1 2 3 4 5
x 5
add to favorites
launch autoscroll
font size
0
reset
how to read this tab
guitar tuner
×
Best way to learn
"Do Re Mi"
Autoscroll
slow
fast
+/-
esc
set tempo
stop
"Do Re Mi" - Nirvana

This is rumored to have been recorded March 25th, 1994.  That would mean 
that it was Kurt's last song.  Any way, I believe it's played with the 6th 
string dropped to D (down a whole step).  The rhythm is probably off.  Just 
listen to the song.  

I've tabbed it the way it would probably sound if it was recorded in the studio.  
So don't get mad if the rhythm/etc. is off.



Drop-D


**Intro**

|-x-x-x-x-x-x-x-x-|-x-x-x---|
|-x-x-x-x-x-x-x-x-|-x-x-x---|
|-x-x-x-x-x-x-x-x-|-x-x-x-7-|
|-x-x-x-x-x-x-x-x-|-x-x-x-x-|
|-x-x-x-x-x-x-x-x-|-x-x-x-x-|
|-x-x-x-x-x-x-x-x-|-x-x-x---|


|-------------------|-------------------|-------------------------|---------------------------------|
|-0-7--x--7-7-7-7-x-|-------------------|-------------------------|---------------------------------|
|-0-7--x--7-7-7-7-x-|-6-6--x--6-6-6-6-x-|-11-11--x--11-11-11-11-x-|-4--x--4-4-4-4---4-4-4-4-4-4-4-0-|
|-0-7--x--7-7-7-7-x-|-4-4--x--4-4-4-4-x-|-9--9---x--9--9--9--9--x-|-2--x--2-2-2-2---2-2-2-2-2-2-2-0-|
|---5--x--5-5-5-5-x-|-4-4--x--4-4-4-4-x-|-9--9---x--9--9--9--9--x-|-2--x--2-2-2-2---2-2-2-2-2-2-2-0-|
|---7-----7-7-7-7---|-4-4--x--4-4-4-4-x-|-9--9---x--9--9--9--9--x-|-2--x--2-2-2-2-----2-2-2-2-2-2-0-|



**Verse**

It's the same as the above part.  The only difference is the rhythm.  It's not as flowing, or 
constant as the intro.  It's probably due to his singing over it.

Also, it seems like the 7-5-7-7-7 chord is 7-5-7-7 in most cases.  Isn't that a relief?



**Pre-Chorus**

|------------------------------|    |------------------------------|
|------------------------------|    |------------------------------|
|-9--x-9-9--x-9-9--x-9---------|x3  |----------------------------7-|
|-7--x-7-7--x-7-7--x-7-5-5-4/8-|    |-2--x-2-2--x-2-2--x-2--2-2--7-|
|-7--x-7-7--x-7-7--x-7-5-5-4/8-|    |-2--x-2-2--x-2-2--x-2--2-2--5-|
|-7--x-7-7--x-7-7--x-7-5-5-4/8-|    |-2--x-2-2--x-2-2--x-2--2-2--7-|


|-----------------|
|-----------------|
|-5-5-5-5-5-5-0-0-|
|-5-5-5-5-5-5-0-0-|
|-3-3-3-3-3-3-0-0-|
|-----------------|



**Chorus**

|-----------------|-----------------|    |-----------------|---|
|-----------------|-----------------|    |-----------------|---|
|-6--x--6-6-6-6-x-|-7--x--7-7-7-7-x-|x3  |-6--x--6-6-6-6-x-|-7-|
|-4--x--4-4-4-4-x-|-7--x--7-7-7-7-x-|    |-4--x--4-4-4-4-x-|-7-|
|-4--x--4-4-4-4-x-|-5--x--5-5-5-5-x-|    |-4--x--4-4-4-4-x-|-5-|
|-4--x--4-4-4-4-x-|-7--x--7-7-7-7-x-|    |-4--x--4-4-4-4-x-|-7-|



**Fill**

I'm not sure which position he's playing these notes in, but you can hear him sliding.  My best 
guess is the position below.

|-------------------|    |-------------------|
|-------------------|    |-------------------|
|-------------------|x3  |-0--0--0-0-0-0-0-0-|
|-------------------|    |-0--0--0-0-0-0-0-0-|
|-------------------|    |-0--0--0-0-0-0-0-0-|
|-12-11-9-7-5-4-2-0-|    |-12-11-9-7-5-4-2-0-|



That's the whole song (other than the last chord strummed.).  You just need to figure out the 
rest of the song's order.  Also, if you think some of this is wrong you should take time to correct 
it by making a tab from this one (copy and paste to Notepad) and add/delete things.

Farewell,
          Bryan (sovast@hotmail.com)
Suggest correction
comments
print report bad tab
2 comments total.
0 reply
PapaRoachKing 31 Apr 06, 2008 10:01 PM

haha!

0 reply
newand678 10 Nov 13, 2014 09:24 AM

didn't like this contribution

guest
You may want to rate the tab now too:
select rating
Wanna post a correction for this tab? Suggest correction