Oops, an error
Loading. Please wait.

Drain You Tab

version 1
version 1

Whole song

Interactive

by Nirvana
191,897 views 108 this week
39 commentsread comments
1 2 3 4 5
x 47
add to favorites
launch autoscroll
font size
0
reset
how to read this tab
guitar tuner
backing track
0:00
0:00
×
Best way to learn
"Drain You"
Autoscroll
slow
fast
+/-
esc
set tempo
stop
e|------------------------|-------------------------|-------------------------|
B|--4----4----------------|----------------------0--|--4----4--4--------------|
G|--4----4----8--8--8-----|--5----5-----6--6--6--0--|--4----4--4--8--8--8--0--|
D|--4----4----8--8--8--0--|--6----6-----6--6--6--0--|--4----4--4--8--8--8--0--|
A|--2----2----6--6--6--0--|--6----6--6--4--4--4-----|--2----2--2--6--6--6--0--|
E|------------------------|--4----4--4--------------|-------------------------|


                                                      
e|-------------------------||--------------------------|
B|-------------------------||--------------------------|
G|-------------6--6--6-----||*--4----4--4--8--8--8-----|
D|--6----6--6--6--6--6--0--||*--4----4--4--8--8--8--0--|
A|--6----6--6--4--4--4--0--||---2----2--2--6--6--6--0--|
E|--4----4--4--------------||--------------------------|


                            5x                                                    
e|--------------------------||------------------------|--------------------------|
B|--------------------------||------------------------|--------------------------|
G|-------------6--6--6-----*||------------------------|--------------------------|
D|--6----6--6--6--6--6--0--*||------------------------|--6--6--6--6--6--6--6--0--|
A|--6----6--6--4--4--4--0---||--4----4-----2----2--2--|--4--4--4--4--4--4--4--0--|
E|--4----4--4---------------||--2----2--0--0----0--0--|--------------------------|


                                                      
e|--------------------------|--------------------------|
B|--------------------------|--------------------------|
G|--------------------------|--------------------------|
D|--------------------------|--6--6--6--6--6--6--6--0--|
A|--2--2--2--2--2--2--2--2--|--4--4--4--4--4--4--4--0--|
E|--0--0--0--0--0--0--0--0--|--------------------------|


                                                      
e|--------------------------|--------------------------|
B|--------------------------|--------------------------|
G|--------------------------|--------------------------|
D|--------------------------|--6--6--6--6--6--6--6--0--|
A|--2--2--2--2--2--2--2--2--|--4--4--4--4--4--4--4--0--|
E|--0--0--0--0--0--0--0--0--|--------------------------|


                                                                           
e|--------------------------|--------------------------|--------------------|
B|--------------------------|--------------------------|--------------------|
G|--------------------------|--------------------------|--------------------|
D|--------------------------|--6--6--6--6--6--6--6--0--|--4--------2--------|
A|--2--2--2--2--2--2--2--2--|--4--4--4--4--4--4--4--0--|--2--------0--------|
E|--0--0--0--0--0--0--0--0--|--------------------------|--------------------|


                                                                     
e|-------------------|--------------------||--------------------------|
B|-------------------|--------------------||--------------------------|
G|-------------------|--------------------||*--4----4--4--8--8--8-----|
D|-------------------|--------------------||*--4----4--4--8--8--8--0--|
A|--6----------------|--------------------||---2----2--2--6--6--6--0--|
E|--4----------------|--------------16\---||--------------------------|


                            7x                                                    
e|--------------------------||------------------------|--------------------------|
B|--------------------------||------------------------|--------------------------|
G|-------------6--6--6-----*||------------------------|--------------------------|
D|--6----6--6--6--6--6--0--*||------------------------|--6--6--6--6--6--6--6--0--|
A|--6----6--6--4--4--4--0---||--4----4-----2----2--2--|--4--4--4--4--4--4--4--0--|
E|--4----4--4---------------||--2----2--0--0----0--0--|--------------------------|


                                                      
e|--------------------------|--------------------------|
B|--------------------------|--------------------------|
G|--------------------------|--------------------------|
D|--------------------------|--6--6--6--6--6--6--6--0--|
A|--2--2--2--2--2--2--2--2--|--4--4--4--4--4--4--4--0--|
E|--0--0--0--0--0--0--0--0--|--------------------------|


                                                      
e|--------------------------|--------------------------|
B|--------------------------|--------------------------|
G|--------------------------|--------------------------|
D|--------------------------|--6--6--6--6--6--6--6--0--|
A|--2--2--2--2--2--2--2--2--|--4--4--4--4--4--4--4--0--|
E|--0--0--0--0--0--0--0--0--|--------------------------|


                                                                           
e|--------------------------|--------------------------|--------------------|
B|--------------------------|--------------------------|--------------------|
G|--------------------------|--------------------------|--------------------|
D|--------------------------|--6--6--6--6--6--6--6--0--|--4--------2--------|
A|--2--2--2--2--2--2--2--2--|--4--4--4--4--4--4--4--0--|--2--------0--------|
E|--0--0--0--0--0--0--0--0--|--------------------------|--------------------|


                                                                             
e|-------------------|------------------|------------------|------------------|
B|-------------------|------------------|------------------|------------------|
G|-------------------|------------------|------------------|------------------|
D|-------------------|------------------|------------------|------------------|
A|--6----------------|------------------|------------------|------------------|
E|--4----------------|------------------|------------------|------------------|


                                                                                
e|--4----------------------|--------------------------|--------------------------|
B|--4----------------------|--------------------------|--------------------------|
G|--4----------------------|--------------------------|--------------------------|
D|--6----------------------|--------------------------|--------------------------|
A|-------6--6--6--6--6--6--|--6--6--6--6--6--6--6--6--|--6--6--6--6--6--6--6--6--|
E|-------4--4--4--4--4--4--|--4--4--4--4--4--4--4--4--|--4--4--4--4--4--4--4--4--|


                                                      
e|--------------------------|--------------------------|
B|--------------------------|--------------------------|
G|--------------------------|--------------------------|
D|--------------------------|--------------------------|
A|--6--6--6--6--6--6--6--6--|--6--6--6--6--6--6--6--6--|
E|--4--4--4--4--4--4--4--4--|--4--4--4--4--4--4--4--4--|


                                                                               
e|--------------------------|--7------4--4-----------|--------------------------|
B|--------------------------|--7---------------------|--------------------------|
G|--------------------------|--x---------------------|-----------------------7--|
D|--------------------------|--6------------6--6--6--|-----------------------6--|
A|--6--6--6--6--6--6--6--6--|------------------------|--6--6--6--6--6--6--6--6--|
E|--4--4--4--4--4--4--4--4--|------------------------|--4--4--4--4--4--4--4--4--|


                                                                                
e|--------------------------|--------------------------|-------------------------|
B|--------------------------|--------------------------|-------------------------|
G|--------------------------|--------------------------|--7----------------------|
D|--------------------------|--------------------------|--6-----------6----------|
A|--6--6--6--6--6--6--6--6--|--6--6--6--6--6--6--6--6--|--6-----------6----------|
E|--4--4--4--4--4--4--4--4--|--4--4--4--4--4--4--4--4--|--4--4--4--4-----4----4--|


                                                                                
e|-------------------------|--------------------------|--------------------------|
B|-------------------------|--------------------------|--------------------------|
G|-------------------7-----|--------------------------|--------------------------|
D|-------------6--6--6-----|--------------------------|--------------------------|
A|-------------x--x--x-----|--6--6--6--6--6--6--6--6--|--6--6--6--6--6--6--6--6--|
E|----4--4--4--4--4--4--4--|--4--4--4--4--4--4--4--4--|--4--4--4--4--4--4--4--4--|


                                                                           
e|--8--------------------|-----------------------|--------------------------|
B|--x--------------------|-----------------------|--------------------------|
G|--7--------------------|-----------------------|--------------------------|
D|--6--------------------|-----------------------|--------------------------|
A|-----------6--6--6-----|-----------------------|--6--6--6--6--6--6--6--6--|
E|--------------------4--|--------4--4--4--4--4--|--4--4--4--4--4--4--4--4--|


                                                                              
e|--------------------------|-----------------------|--------------------------|
B|--------------------------|-----------------------|--------------------------|
G|--------------------------|--7--------------------|--------------------------|
D|--------------------------|--6--------------------|--------------------------|
A|--6--6--6--6--6--6--6--6--|-----------------------|--------------------------|
E|--4--4--4--4--4--4--4--4--|---------4----4--4--4--|--4--4--4--4--4--4--4--0--|


                                                                                
e|-------------------------|--------------------------|--------------------------|
B|-------------------------|--------------------------|--------------------------|
G|--5----------------------|--------------------------|--------------------------|
D|--6----------------------|--------------------------|--------------------------|
A|--6----6--6--6--6--6--6--|--6--6--6--6--6--6--6--6--|--6--6--6--6--6--6--6--6--|
E|--4----4--4--4--4--4--4--|--4--4--4--4--4--4--4--4--|--4--4--4--4--4--4--4--4--|


                                                      
e|--------------------------|--------------------------|
B|--------------------------|--------------------------|
G|--------------------------|--------------------------|
D|-----------6--6--6--6--6--|--6--6--6--6--6--6--6--6--|
A|--6--6--6--6--6--6--6--6--|--6--6--6--6--6--6--6--6--|
E|--4--4--4--4--4--4--4--4--|--4--4--4--4--4--4--4--4--|


                                                      
e|--------------0--0--0--0--|--0--0--0--0--0--0--0--0--|
B|--------0-----0--0--0--0--|--0--0--0--0--0--0--0--0--|
G|--------x-----x--x--x--x--|--x--x--x--x--x--x--x--x--|
D|--6--6--6--6--6--6--6--6--|--6--6--6--6--6--6--6--6--|
A|--6--6--6--6--6--6--6--6--|--6--6--6--6--6--6--6--6--|
E|--4--4--4--4--4--4--4--4--|--4--4--4--4--4--4--4--4--|


                                                                               
e|--0--0--0--0--------------|-------------------------|-------------------------|
B|--0--0--0--0--------------|-------------------------|-------------------------|
G|--x--x--x--x--x--x--x--x--|--4----4--4--8--8--8-----|-------------6--6--6-----|
D|--6--6--6--6--6--6--6--6--|--4----4--4--8--8--8--0--|--6----6--6--6--6--6--0--|
A|--6--6--6--6--6--6--6--6--|--2----2--2--6--6--6--0--|--6----6--6--4--4--4--0--|
E|--4--4--4--4--4--4--4--4--|-------------------------|--4----4--4--------------|


                                                                                
e|-------------------------|-------------------------||--------------------------|
B|-------------------------|-------------------------||--------------------------|
G|--4----4--4--8--8--8-----|-------------6--6--6-----||*--4----4--4--8--8--8-----|
D|--4----4--4--8--8--8--0--|--6----6--6--6--6--6--0--||*--4----4--4--8--8--8--0--|
A|--2----2--2--6--6--6--0--|--6----6--6--4--4--4--0--||---2----2--2--6--6--6--0--|
E|-------------------------|--4----4--4--------------||--------------------------|


                            7x                                                    
e|--------------------------||------------------------|--------------------------|
B|--------------------------||------------------------|--------------------------|
G|-------------6--6--6-----*||------------------------|--------------------------|
D|--6----6--6--6--6--6--0--*||------------------------|--6--6--6--6--6--6--6--0--|
A|--6----6--6--4--4--4--0---||--4----4-----2----2--2--|--4--4--4--4--4--4--4--0--|
E|--4----4--4---------------||--2----2--0--0----0--0--|--------------------------|


                                                      
e|--------------------------|--------------------------|
B|--------------------------|--------------------------|
G|--------------------------|--------------------------|
D|--------------------------|--6--6--6--6--6--6--6--0--|
A|--2--2--2--2--2--2--2--2--|--4--4--4--4--4--4--4--0--|
E|--0--0--0--0--0--0--0--0--|--------------------------|


                                                      
e|--------------------------|--------------------------|
B|--------------------------|--------------------------|
G|--------------------------|--------------------------|
D|--------------------------|--6--6--6--6--6--6--6--0--|
A|--2--2--2--2--2--2--2--2--|--4--4--4--4--4--4--4--0--|
E|--0--0--0--0--0--0--0--0--|--------------------------|


                                                      
e|--------------------------|--------------------------|
B|--------------------------|--------------------------|
G|--------------------------|--------------------------|
D|--------------------------|--6--6--6--6--6--6--6--0--|
A|--2--2--2--2--2--2--2--2--|--4--4--4--4--4--4--4--0--|
E|--0--0--0--0--0--0--0--0--|--------------------------|


                                                      
e|--------------------------|--------------------------|
B|--------------------------|--------------------------|
G|--------------------------|--------------------------|
D|--------------------------|--6--6--6--6--6--6--6--0--|
A|--2--2--2--2--2--2--2--2--|--4--4--4--4--4--4--4--0--|
E|--0--0--0--0--0--0--0--0--|--------------------------|


                                                                           
e|--------------------------|--------------------------|--------------------|
B|--------------------------|--------------------------|--------------------|
G|--------------------------|--------------------------|--------------------|
D|--------------------------|--6--6--6--6--6--6--6--0--|--4--------2--------|
A|--2--2--2--2--2--2--2--2--|--4--4--4--4--4--4--4--0--|--2--------0--------|
E|--0--0--0--0--0--0--0--0--|--------------------------|--------------------|


                                                                              
e|-------------------|------------------|------------------|------------------||
B|-------------------|------------------|------------------|------------------||
G|-------------------|------------------|------------------|------------------||
D|-------------------|------------------|------------------|------------------||
A|--6----------------|------------------|------------------|------------------||
E|--4----------------|------------------|------------------|------------------||
Suggest correction
comments
print report bad tab
39 comments total. Showing first comments.
+3 reply
EndlessNameless 10 Mar 15, 2002 07:00 PM

Other than playing those 2 barre chords during the intro, this tab is great.

0 reply
corrupted youth 10 Jun 04, 2002 08:00 PM

What is the correct way to play it then?

0 reply
Kurt_Cobain 0 Oct 13, 2002 08:00 PM

Nit this way that's for sure. What about the interlude and the second guitar?

guest
You may want to rate the tab now too:
select rating
Wanna post a correction for this tab? Suggest correction