Oops, an error
Loading. Please wait.
We have an official Drain You tab made by UG professional guitarists. Check out the tab »
×
by Nirvana
6,664 views 6 this week
no commentswrite comment
1 2 3 4 5
x 7
add to favorites
×
Save as Personal and add changes to this tab that will be seen only by you. Learn more ›
×
You can save this tab as Personal to edit and correct it or add notes. All changes will be seen only by you. Learn more »
launch autoscroll
font size
0
reset
guitar tuner
backing track
0:00
0:00
edit
Autoscroll
slow
fast
+/-
esc
set tempo
stop
Author
Artist: Nirvana
Song: Drain You
Album: Nevermind
Tabbed By: Mathias

This song should be pretty easy to play.
I say listen to the song and play the tab to make sure about how to strum or finger play
this one.

[intro/verse]
G|----------------------------------------------|
D|----------------------------------------------|
A|--2-2--6-6-6----------------------------------|          repeat
E|---------------2-2--6-6-6---------------------|
One baby to another...

[Pre-Chorus]
G|------------------------|
D|------------------------|
A|------------------------|           only 1 time
E|--4--4-3-2-1------------|

  [Chorus]
G|-----------------------------------|
D|-----------------------------------|
A|-----------------------------------|           repeat
E|-1-1-1-1-1-1-1-1--4-4-4-4-4-4-4-4--|
Chew you're meat for you...

  [Bridge]
G|----------------------------------|
D|----------------------------------|
A|----------------------------------|               repeat
E|-2-2-2-2-2-2-2-2-2-2-2-2-2-2-2-2--|


Here's how it goes.
[Verse]
[Chorus]
[Verse]
[Chorus]
[Bridge]
[Verse]
[Chorus]

If any comments contact me at INUTERO9089@aol.com,

            
            
Suggest correction
Creating personal tab
Creating personal tab
You can edit any tab online and save it as your Personal.

You can edit, replace or remove any tab part or add personal notes – all changes will be seen only by you.

Personal tabs can be accessed anytime from any device, even offline.
Learn more »
comments
print report bad tab
guest
You may want to rate the tab now too:
select rating
Wanna post a correction for this tab? Suggest correction