Oops, an error
Loading. Please wait.

Drain You Tab

version 3
version 3
289,072 views 714 this week
22 commentsread comments
1 2 3 4 5
excellent!
x 89
add to favorites
launch autoscroll
font size
0
reset
how to read this tab
guitar tuner
Autoscroll
slow
fast
+/-
esc
set tempo
stop
Help us to improve Ultimate-Guitar.com Take our survey!
×
Author
Album|Nevermind
Year|1991

Tuning|Standard

Note: While playing this song live they seemed to of played it a whole step
higher, so just move everything up 2 frets from the studio version.



[Intro/Verse]

e|----------------------------------------------------------------|
b|----------------------------------------------------------------|
G|-2--2-2-0-6--6-6-0----------4--4-4-0----------------------------|
D|-2--2-2-0-6--6-6-0-4--4-4-x-4--4-4-0----------------------------|
A|-0--0-0-0-4--4-4-0-4--4-4-x-2--2-2-0----------------------------|
E|-------------------2--2-2-x-------------------------------------|
                              ^ (Distortion on 2nd time through)

[Verse] x6

e|----------------------------------------------------------------|
b|----------------------------------------------------------------|
G|-2--2-2-0-6--6-6-0----------4--4-4-0----------------------------|
D|-2--2-2-0-6--6-6-0-4--4-4-x-4--4-4-0----------------------------|
A|-0--0-0-0-4--4-4-0-4--4-4-x-2--2-2-0----------------------------|
E|-------------------2--2-2-x-------------------------------------|
                              ^ (Distortion on 2nd time through)

[Chorus]

e|------------------------------------------------|
b|------------------------------------------------|
G|-9--9-9-----------------------------------------|
D|-9--9-9-12--12-12-0-9-9-9-9-9-9-9---------------|
A|-7--7-7-12--12-12-0-9-9-9-9-9-9-9---------------|
E|--------10--10-10-0-7-7-7-7-7-7-7---------------|


           (x3)
e|---------------------------------------|------------------|
b|---------------------------------------|------------------|
G|---------------------------------------|------------------|
D|-12-12-12-12-12-12-12-0-9-9-9-9-9-9-9--|--7~---5~---4~----|
A|-12-12-12-12-12-12-12-0-9-9-9-9-9-9-9--|--7~---5~---4~----|
E|-10-10-10-10-10-10-10-0-7-7-7-7-7-7-7--|--5~---3~---2~----|
                                           'I   like you'

[Verse]

e|----------------------------------------------------------------|
b|----------------------------------------------------------------|
G|-2--2-2-0-6--6-6-0----------4--4-4-0----------------------------|
D|-2--2-2-0-6--6-6-0-4--4-4-x-4--4-4-0----------------------------|
A|-0--0-0-0-4--4-4-0-4--4-4-x-2--2-2-0----------------------------|
E|-------------------2--2-2-x-------------------------------------|
                              ^ (Distortion on 2nd time through)


[Chorus]


[Interlude] 
(Repeats from 1:33-2:23)

Just mess around with an F# chord through out the Interlude.

e|-(2)---------------(2)--------------------|
b|-(2)---------------(2)--------------------|
G|-(3)---------------(3)--------------------|
D|--4-----------------4---------------------|
A|--4-----------------4---------------------|
E|--2-2-2-2-2-2-2-2-2-2-2-2-2-2-2-2-2-2-----|

Then

e|------------------------------------------|
b|------------------------------------------|
G|-6/7--4~--5/6--7/8--9/10/11/12/13/15//----|
D|------------------------------------------|
A|------------------------------------------|
E|------------------------------------------|


[Verse]

e|----------------------------------------------------------------|
b|----------------------------------------------------------------|
G|-2--2-2-0-6--6-6-0----------4--4-4-0----------------------------|
D|-2--2-2-0-6--6-6-0-4--4-4-x-4--4-4-0----------------------------|
A|-0--0-0-0-4--4-4-0-4--4-4-x-2--2-2-0----------------------------|
E|-------------------2--2-2-x-------------------------------------|
                              ^ (Distortion on 2nd time through)

[Ending Chorus]

e|------------------------------------------------|
b|------------------------------------------------|
G|-9--9-9-----------------------------------------|
D|-9--9-9-12--12-12-0-9-9-9-9-9-9-9---------------|
A|-7--7-7-12--12-12-0-9-9-9-9-9-9-9---------------|
E|--------10--10-10-0-7-7-7-7-7-7-7---------------|

           (x5)
e|---------------------------------------|------------------|
b|---------------------------------------|------------------|
G|---------------------------------------|------------------|
D|-12-12-12-12-12-12-12-0-9-9-9-9-9-9-9--|--7~---5~---4~----|
A|-12-12-12-12-12-12-12-0-9-9-9-9-9-9-9--|--7~---5~---4~----|
E|-10-10-10-10-10-10-10-0-7-7-7-7-7-7-7--|--5~---3~---2~----|
                                           'I   like you'

Rate or comment on what you think :)


************************************

| x    Dead note
| (n)  Ghost note
| /    Slide up
| ~    Vibrato

************************************
Suggest correction
comments
print report bad tab
22 comments total. Showing first comments.
+5 reply
David_Bowie=GOD 170 wrote on August 14 2009, 12:42 pm

Everything is right except the intro/verse, it should be played a whole step down like this

e|----------------------------------------------------------------|
b|----------------------------------------------------------------|
G|-2--2-2-2/6--6-6-0----------4--4-4-0----------------------------|
D|-2--2-2-2/6--6-6-0-4--4-4-x-4--4-4-0----------------------------|
A|-0--0-0-0/4--4-4-0-4--4-4-x-2--2-2-0----------------------------|
E|-------------------2--2-2-x-------------------------------------|

+1 reply
folklore666 269 wrote on August 24 2009, 08:38 am

Yes your right, it is i changed it.

0 reply
cachuchis 118 wrote on September 5 2009, 08:25 pm

There are so many versions and ways to play it but all souns accurate cant decide wich way to play it

guest
You may want to rate the tab now too:
select rating
Wanna post a correction for this tab? Suggest correction