Oops, an error
Loading. Please wait.

Fecal Matter Tab

version 2
version 2

Album

3,494 views 6 this week
4 commentsread comments
1 2 3 4 5
please rate
add to favorites
launch autoscroll
font size
0
reset
how to read this tab
guitar tuner
Tab Pro tools
  • play this tab
  • loop segment
  • change instrument
  • show fretboard
  • metronome
×
Best way to learn
"Fecal Matter"
Autoscroll
slow
fast
+/-
esc
set tempo
stop
Fecal Matter Demo (1985, December)

Vocales/Guitar:          Kurt Cobain
Drums/Bass/Backvocales:  Dale Crover

List: Sound Of Dentage
      Bambi Slaughter
      Laminated Effect
      Spank Thru
      Downer    (The same tabs as on Bleach, but slower & different lyrics)
      Unknown 2     (also called "Class Of '86" or "Punk Rocker")

Note: Unkown 2 is not complete!


Tune: standard E,A,D,G,B,E

Sound Of Dentage:

Riff 1:
1)-------------------------------------------|
2)-------------------------------------------|
3)-------------------------------------------|
4)-4--4-4-4--x--4-4--x-----------------------|  xplay it 16 times
5)-4--4-4-4--x--4-4--x-----------------------|
6)-2--2-2-2--0--2-2--0-----------------------|

Riff 2:
1)------------------------------------------------------------------|
2)------------------------------------------------------------------|
3)------------------------------------------------------------------|
4)-7-7-7-7-7-----7-7-7-7-7-----7-7-7-7-7-----7-7-7-7-7---------~12--|
5)-7-7-7-7-7-----7-7-7-7-7-----7-7-7-7-7-----7-7-7-7-7---------~12--|
6)-5-5-5-5-5-----5-5-5-5-5-----5-5-5-5-5-----5-5-5-5-5--------------|

Riff 3: "muted" !!!
1)-------------------------------------------------------------------| xplay it 2 times
2)-------------------------------------------------------------------|
3)-------------------------------------------------------------------|
4)-2-2-2-2-2-2-2-2-2-2-2-2-2-2-2-2--4-4-4-4-4-4-4-4-4-4-4-4-4-4-4-4--|
5)-2-2-2-2-2-2-2-2-2-2-2-2-2-2-2-2--4-4-4-4-4-4-4-4-4-4-4-4-4-4-4-4--|
6)-------------------------------------------------------------------|

Outro 4:
1)--------------------------|
2)--------------------------|
3)--------------------------|
4)-4------------------------|
5)-4--4-3-2-1---------------|
6)-2------------------------|

- - - - - - - - - - - - - - - - - - - - - - - - - - - - - - - - - - - - - - -

Bambi Slaughter:

Riff 1:
1)-----------------------------------------------------|
2)-----------------------------------------------------|
3)-------------------5--4-3-2-----------------5--4-3-2-|
4)-2-2-x-3-3---------5--4-3-2-----2-3---------5--4-3-2-| xplay it 4 times
5)-2-2-x-3-3---------3--2-1-0-----2-3---------3--2-1-0-|
6)-0-0-x-1-1--x-x-x---------------0-1--x-x-x-----------|

Riff 2:
1)----------------------------------------------|
2)----------------------------------------------|
3)-5-7-5-7-5-7-5--5-5-5-------------------------|
4)-5-7-5-7-5-7-5--5-5-5----3-5-3-5-3-5-3--3-3-3-| xplay it 4 times
5)-3-5-3-5-3-5-3--3-3-3----3-5-3-5-3-5-3--3-3-3-|
6)-------------------------1-3-1-3-1-3-1--1-1-1-|

Riff 3:
1)----------------------------------------------------|
2)----------------------------------------------------|
3)---------------2-~-------2-~-------2-~-------2-~----|
4)-3-3-3----2-~--2-~--2-~--2-~--2-~--2-~--2-~--2-~----|
5)-3-3-3----2-~--0----2-~--0----2-~--0-~--2-~--0-~----|
6)-1-1-1----0---------0---------0---------0-----------|

Riff 4:
1)----------------------------------------------------------|
2)----------------------------------------------------------|
3)----------------------------------------------------------|
4)-2-x-x-2-x-x-2-x-x-2--3-3-3---2-x-x-2-x-x-2-x-x-2--5-5-5--| xplay it 9 times
5)-2-x-x-2-x-x-2-x-x-2--3-3-3---2-x-x-2-x-x-2-x-x-2--5-5-5--|
6)-0-x-x-0-x-x-0-x-x-0--0-0-0---0-x-x-0-x-x-0-x-x-0--0-0-0--|

Riff 5:
1)---------------------------------------------|
2)---------------------7-6-9-------------------|
3)---------------------------7-6-9-------------|
4)-7-x-x-7-x-x-7-x-7---------------7-6-9-------| xplay it 4 times
5)-7-x-x-7-x-x-7-x-7--------------------7-6-9--|
6)-0-x-x-0-x-x-0-x-0---------------------------|

Riff 6:
1)------------------------------|
2)------------------------------|
3)------------------------------|
4)-5-5-5-5-5---7-7-7-7-7--------| xplay it 4 times
5)-5-5-5-5-5---7-7-7-7-7--------|
6)-0-0-0-0-0---0-0-0-0-0--------|

- - - - - - - - - - - - - - - - - - - - - - - - - - - - - - - - - - - - - - -

Laminated Effect:

Riff 1:
1)-----------------------------|
2)-----------------------------|
3)------5----------------------|
4)-2-x--5---6/5-5-5-5-5--------| xplay it 12 times
5)-2-x--3---6/5-5-5-5-5--------|
6)-0-x------4/3-3-3-3-3--------|

Riff 2:
1)--------------------------------                          -----------------|
2)--------------------------------                          -----------------|
3)--------------------------------                          -----------------|
4)-5--5-5--6-6--8-8-8-8-8-8-8-8--- play it 4 times and than -5-5-5-5-5-5-5-5-|
5)-5--5-5--6-6--8-8-8-8-8-8-8-8---                          -5-5-5-5-5-5-5-5-|
6)-3--3-3--4-4--6-6-6-6-6-6-6-6---                          -3-3-3-3-3-3-3-3-|

- - - - - - - - - - - - - - - - - - - - - - - - - - - - - - - - - - - - - - -

Spank Thru:

Riff 1:
1)----------------------2---2-2-------------------------------|
2)--2---2-2-2-----------3---3-3----2---2-2-2--0---0-0-0--2----|
3)--2---2-2-2--0---0-0--2---2-2----2---2-2-2--0---0-0-0--2----| xplay it 6 times
4)--2---2-2-2--0---0-0--0---0-0----2---2-2-2--0---0-0-0--2----|
5)--0---0-0-0--2---2-2-------------0---0-0-0--0---0-0-0--0----|

Riff 2:
1)-2-2-2-2-2-2-----------------------------------------|
2)-3-3-3-3-3-3-----------------------------------------|
3)-2-2-2-2-2-2-----------------------------------------|
4)--------------2-2-2-2-2-2----------------------------|
5)--------------2-2-2-2-2-2--3-3-3-3-3-3--5-5-5-5-5-5--| xplay it 2 times
6)--------------0-0-0-0-0-0--3-3-3-3-3-3--5-5-5-5-5-5--|
6)---------------------------1-1-1-1-1-1--3-3-3-3-3-3--|

Riff 3:
1)------------|
2)------------|
3)------------|
4)-2--5-5-5-5-| xplay it 8 times
5)-2--5-5-5-5-|
6)-0--3-3-3-3-|

Riff 4:
1)----------------------------------------------------------|
2)----------------------------------------------------------|
3)-4-4-4-4-4-4----7--7-7----2-2-3-4--4-4-4-4-4-4----7--7-7--|
4)-4-4-4-4-4-4----7--7-7----2-2-3-4--4-4-4-4-4-4----7--7-7--|
5)-2-2-2-2-2-2----5--5-5----0-0-1-2--2-2-2-2-2-2----5--5-5--|
6)----------------------------------------------------------|

1)----------------------------------------|
2)----------------------------------------|
3)-2-2-3-4--4-4-4-4-4-4-------------------|
4)-2-2-3-4--4-4-4-4-4-4--5-5-5--3-3-3--2--| xplay it 2 times
5)-0-0-1-2--2-2-2-2-2-2--5-5-5--3-3-3--2--|
6)-----------------------3-3-3--1-1-1--0--|

Solo: Do your own, I can't play it exactly.

- - - - - - - - - - - - - - - - - - - - - - - - - - - - - - - - - - - - - - -

Unkwon 2:

Note: The quality of this song is very bad. I hear some guitar noises, but I don't know: 
often & the solo.

Intro:
1)-------------|
2)-------------|
3)-------------|
4)-------------|
5)-------------|
6)-5-5--5-6-3--|

Riff 1:
1)-------------|
2)-------------|
3)-------------|
4)-7-7--7-8-5--|
5)-7-7--7-8-5--|
6)-5-5--5-6-3--|

Riff 2:
1)---------------------|
2)---------------------|
3)-9-9-9--8~~----------|
4)-9-9-9--8~~----------|
5)-7-7-7--6~~----------|
6)---------------------|


Made by Fecal Matter
comments
We did not receive enough feedback on this tab! Please rate:
print report bad tab
1 2 3 4 5
4 comments total. Showing first comments.
-1 reply
Fecal Matter wrote on December 27 2007, 06:26 am

I posted it, please correct it!

+1 reply
Teen Spirit wrote on February 8 2008, 11:30 am

not at all bad, especially considering the fact that not all of these songs can be heard with too good quality, can they? where did u hear them? man u must like their album bad, ur log in name is fecal matter too..... anyway, good job. :)

+2 reply
Teen Spirit wrote on February 28 2008, 01:34 pm

oh wait; aren't u missing a few songs though?

I want to post or [tab]
guest
You may want to rate the tab now too:
select rating
Please do not post tabs as comments. Select "correction" instead!