Oops, an error
Loading. Please wait.
We have an official Floyd The Barber tab made by UG professional guitarists. Check out the tab »
×
by Nirvana
31,058 views 33 this week
2 commentsread comments
1 2 3 4 5
x 38
add to favorites
×
Save as Personal and add changes to this tab that will be seen only by you. Learn more ›
×
You can save this tab as Personal to edit and correct it or add notes. All changes will be seen only by you. Learn more »
launch autoscroll
font size
0
reset
how to read this tab
guitar tuner
backing track
0:00
0:00
edit
Autoscroll
slow
fast
+/-
esc
set tempo
stop
[Intro]
           
eb|---------------||-----------------|  
Bb|---------------||-----------------|   
Gb|---------------||-----------------| 
Db|---------------||-----------------|
Ab|3---3---2-2-2--||3---3---2-2-2-2--| x3
Eb|0h1-0h1-0-0-0--||0h1-0h1-0-0-0-0--|
          |.....|         
                                              
                                       Not sure about this part. You can hear the open 
eb|---------------||--------0-0-0-0--| notes but im not sure if he is  
Bb|---------------||--------0-0-0-0--| still palm muting the E5 or     
Gb|---------------||--------x-x-x-x--| not but i dont think it    
Db|---------------||--------x-x-x-x--| matters that much.    
Ab|3---3---2-2-2--||3---3---2-2-2-2--|
Eb|0h1-0h1-0-0-0--||0h1-0h1-0-0-0-0--| x3
          |.....|        
        
                               
[Verse]   
                             
eb|---------------||------------------|  Note:I think he does a neckslide
Bb|---------------||------------------|      at the end of the main riff 
Gb|---------------||------------------|       right before it goes into
Db|---------------||------------------|       the chorus.
Ab|3---3---2-2-2--||3---3---2-2-2-2---|
Eb|0h1-0h1-0-0-0--||0h1-0h1-0-0-0-0---| x3
          |.....|          |.......|


[Chorus]
                                 
eb|----------------------------|
Bb|----------------------------|
Gb|6-6-6-------5-5-------------| x4
Db|6-6-6-7-7---5-5---6-6-------|
Ab|4-4-4-7-7---3-3---6-6-------|
Eb|------5-5---------4-4-------|


[Guitar Solo]

eb|--------------------------------||--------------------------------|
Bb|--------------------------------||--------------------------------|
Gb|--------------------------------||--------------------------------|
Db|--------------------------------||--------------------------------| x3
Ab|------------0-1-3~~~3-1---0-1-3-||------------0-1-3/5-5/6-6/7-7\--|
Eb|1---1-0-1-3---------------------||1---1-0-1-3---------------------|


[Outro]

eb|---------------|  
Bb|---------------|
Gb|---------------|
Db|---------------|
Ab|3---3---2-2-2--|
Eb|0h1-0h1-0-0-0--|
          |.....|         

It randomly does that open note thing on the B and e string, that i talked
about in the intro, throughout the song... but like i said i dont think it
is that big of a deal.


Song Structure:

Intro x1
Verse x2
Chorus x4
Verse x3
Chorus x4
Guitar Solo x1
Verse x3
Chorus x4
Outro x1



************************************

| x  Dead note
| h  Hammer-on
| b  Bend
| /  Slide up
| \  Slide down
| ~  Trill/Vibrato

************************************

            
            
Suggest correction
Creating personal tab
Creating personal tab
You can edit any tab online and save it as your Personal.

You can edit, replace or remove any tab part or add personal notes – all changes will be seen only by you.

Personal tabs can be accessed anytime from any device, even offline.
Learn more »
comments
print report bad tab
2 comments total.
0 reply
Tomozaurus 230 Aug 01, 2012 10:38 PM

Best tab of the song on here by a mile.

0 reply
chromefire11 10 Aug 08, 2016 09:32 AM

Solo seems a bit off

guest
You may want to rate the tab now too:
select rating
Wanna post a correction for this tab? Suggest correction