Oops, an error
Loading. Please wait.

Frances Farmer Will Have Her Revenge On Seattle Tab

version 2
version 2
67,498 views 165 this week
15 commentsread comments
1 2 3 4 5
x 21
add to favorites
launch autoscroll
font size
0
reset
how to read this tab
guitar tuner
Autoscroll
slow
fast
+/-
esc
set tempo
stop
Help us to improve Ultimate-Guitar.com Take our survey!
×
Author
FRANCES FARMER WILL HAVE HER REVENGE ON SEATTLE
As recorded by Nirvana
(From the 1993 Album IN UTERO)

Transcribed by Victor Ochoa


[Intro]

   Q=114
   G#5                E5        G5
  4/4
   Gtr I
    PM------------------------------------
e|------------------|--------------------|
B|------------------|--------------------|
G|------------------|--------------------|
D|------------------|--------------------|
A|-/6---6-6-6-6-6-6-|--2--2-2---/5-5-5-5-|
E|-/4-4-4-4-4-4-4-4-|--0--0-0-0-/3-3-3-3-|
|
 | Gtr III
e|------------------|--------------------|
B|------------------|--------------------|
G|------------------|--------------------|
D|------------------|--------------------|
A|----------------6s|=(2)--------------4s|
E|------------------|--------------------|


  E5        G5         G#5
 ------------------------------------|
e|--------------------|-------------------|
B|--------------------|-------------------|
G|--------------------|-------------------|
D|--------------------|-------------------|
A|--2--2-2---/5-5-5---|-6-6-6-6-6-6-6-6---|
E|--0--0-0-0-/3-3-3-0-|-4-4-4-4-4-4-4-4---|
 |
e|--------------------|-------------------|
B|--------------------|-------------------|
G|--------------------|-------------------|
D|--------------------|-------------------|
A|-(2)----------------|---------------6s==|
E|--------------------|-------------------|


  E5        G5         E5        G5
   PM-----------------------------------|
e|--------------------|--------------------|
B|--------------------|--------------------|
G|--------------------|--------------------|
D|--------------------|--------------5-5-5-|
A|--2----2---/5-5-5-5-|--2--2-2---/5-5-5-5-|
E|--0--0-0-0-/3-3-3-3-|--0--0-0-0-/3-3-3-3-|
 |
e|--------------------|--------------------|
B|--------------------|--------------------|
G|--------------------|--------------------|
D|--------------------|--------------------|
A|-(2)--------------5s|=(2)----------------|
E|--------------------|--------------------|


   B5                             F#5 G5
   Gtr II
e|------------------|---------------------||
B|------------------|---------------------||
G|-4--4-4-4-4-4-4-4-|-4-4-4-4---4---------||
D|-4--4-4-4-4-4-4-4-|-4-4-4-4---4---------||
A|-2--2---2-2-2-----|-2---2-2---2-4-4-5---||
E|------------------|-------------2-2-3---||
 |
 | Gtr IV
e|------------------|---------------------||
B|------------------|---------------------||
G|-4--4-4-4-4-4---4-|-4-4-4---4-4---------||
D|-4--4-4-4-4-4---4-|-4-4-4---4-4---------||
A|-2--2---2-2-2-----|-2---2-------4-4-5s==||
E|------------------|-------------2-2-3s==||


[Verse]

  G#5               E5        G5         E5      G5         B5
  Gtr III                                                   Gtr IV
  PM--------------------------------------------------|
e|-----------------|--------------------|------------------|-----------------|
B|-----------------|--------------------|------------------|-----------------|
G|-----------------|--------------------|----------------0-|-4--4-4-4-4-4----|
D|-----------------|--------------------|----------------0-|-4--4-4-4-4-4----|
A|-----------6---6s|=(2)----------------|----------------0-|-2--2---2-2-2----|
E|-4-4-4-4-4---4---|-----0-0-0S=3-3-3-3S|=0-0-0-0S=3-3-3---|--------------2--|
 |
 |   Gtr I                                                   Gtr II
 |   PM--------------------------------------------------|
e|-----------------|--------------------|------------------|-----------------|
B|-----------------|--------------------|------------------|-----------------|
G|-----------------|--------------------|------------------|-4--4-4-4-4-4-4--|
D|-----------------|--------------------|------------------|-4--4-4-4-4-4-4--|
A|-6-6-6-6-6-6-6-6-|--2--2-2---/5-5-5-5-|-2-2-2---/5-5-5-5-|-2--2---2-2-2-2--|
E|-4-4-4-4-4-4-4-4-|--0--0-0-0-/3-3-3-3-|-0-0-0-0-/3-3-3-3-|-----------------|


                   F#G5  G#5
                           Gtr I
                           PM-------------
e|---------------------|-----------------|
B|---------------------|-----------------|
G|-4-4-4-4-4---4-------|-----------------|
D|-4-4-4-4-4---4-------|-----------------|
A|-2-----2-2---2-4-4-5s|=6-6-6-6-6-6-6-6-|
E|---------------2-2-3s|=4-4-4-4-4-4-4-4-|
 |
 |                       Gtr III
 |                       PM---------------
e|---------------------|-----------------|
B|---------------------|-----------------|
G|-4-----4---4-4-------|-----------------|
D|-4-----4---4-4-------|-----------------|
A|-2-----2-----2-4-4-5-|-----------6---6s|
E|---2-----------2-2-3-|-4-4-4-4-4---4---|


  E5        G5         E5        G5
 -----|                 PM-|
e|--------------------|---------------------|
B|--------------------|---------------------|
G|--------------------|---------------------|
D|--------------------|---------------------|
A|--2--2-2---/5-5-5-5-|--2--2-2---/5-5-5-5--|
E|--0--0-0-0-/3-3-3-3-|--0--0-0-0-/3-3-3-3--|
 |
 |--------------------------------|
e|--------------------|---------------------|
B|--------------------|---------------------|
G|--------------------|------------------0--|
D|--------------------|--------------5-5-0--|
A|-(2)---2----------5s|=(2)----------5-5-0--|
E|-----0---0S=3-3-3---|-----0-0-0--3-3------|


  B5                             F#5 G5  G#5
  Gtr II
                                           PM----------------|
e|----------------|---------------------|-----------------------|
B|----------------|---------------------|-----------------------|
G|-4--4-4-4-4-4-4-|-4-4-4-4-4---4-------|-----------------------|
D|-4--4-4-4-4-4-4-|-4-4-4-4-4---4-------|-----------------------|
A|-2--2---2-2-2-2-|-2-----2-2---2-4-4-5s|=6-6-6-6------6--6-6-6-|
E|----------------|---------------2-2-3s|=4-4-4-4------4--4-4-4-|
 |
 | Gtr IV
 |                                        PM----|         PM--|
e|----------------|---------------------|-----------------------|
B|----------------|---------------------|-----------------------|
G|-4--4-4-4-4-4---|-4---4-4---4-4-------|-----------------------|
D|-4--4-4-4-4-4---|-4---4-4---4-4-------|-------------[6]-------|
A|-2--2---2-2-2---|-2-----2-----2-2-2-4-|-5-5-6-6---x-----6-6-6-|
E|--------------0-|-2-------------0-0-2-|-3-3-4-4-x-------4-4-4-|


     E5        G5           E5        G5
      PM-|                   PM-|
e|------------------------|-----------------------|
B|------------------------|-----------------------|
G|------------------------|-----------------------|
D|------------------------|-----------------------|
A|----2--2-2---/5-5--5--5-|--2--2-2-----5---5-5-5-|
E|----0--0-0-0-/3-3--3--3-|--0--0-0-0---3---3-3-3-|
 |
 |              PM|     PM
e|------------------------|-----------------------|
B|------------------<4>---|-----------------------|
G|------------------------|---------------------0-|
D|---[6]------------------|-[6]-------([6])-----0-|
A|-x------------5-5-----5-|-------------x---5---0-|
E|--------------3-3-----3-|-------------x---3-----|


   B5                                 C5
   Gtr II
e|----------------|---------------------||
B|----------------|---------------------||
G|-4--4-4-4-4-4-4-|-4-4-4-4-(4)-4-(4)-5-||
D|-4--4-4-4-4-4-4-|-4-4-4-4-(4)-4-(4)-5-||
A|-2--2---2-2-2-2-|-2---2-2-(2)-2-(2)-3-||
E|----------------|-------------2-(2)-3-||
 |
 | Gtr IV
e|----------------|---------------------||
B|----------------|---------------------||
G|-4--4-4-4---4-4-|-4---4-4-(4)-4-(4)-5-||
D|-4--4-4-4---4-4-|-4---4-4-(4)-4-(4)-5-||
A|-2--2-----2-2-2-|-----2-2-(2)-2-(2)-3-||
E|----------------|-------------2-(2)-3-||


[Chorus]

   C#5          E5             D5    B5                                  C5
   Gtrs II, IV
e|-----------------|-------------------|----------------|-------------------|
B|-----------------|-------------------|----------------|-------------------|
G|-6--6-4-4---6-/9-|-(9)-9-9\--7-7---4-|-4--4-4-4---4---|--4---4-4-4-4-4-5--|
D|-6--6-4-4---6-/9-|-(9)-9-9\--7-7---4-|-4--4-4-4---4---|--4---4-4-4-4-4-5--|
A|-4--4---6-----/7-|-(7)-7-7\--5-5-5---|-2--2---2---2---|--2---2-2-2-2-2-3--|
E|-4--4---6-4---/7-|-(7)---7\--5-5-5---|-2--------2---2-|-(2)--2-2-2-2-2-3--|


   C#5          E5             D5    B5                                  C5
e|-----------------|-------------------|----------------|-------------------|
B|-----------------|-------------------|----------------|-------------------|
G|-6--6-6-6---6-/9-|-(9)-9-9\--7-7---4-|-4--4-4-4-4-4---|--4---4-4-4-4-4-5--|
D|-6--6-6-6---6-/9-|-(9)-9-9\--7-7-0-4-|-4--4-4-4-4-4---|--4---4-4-4-4-4-5--|
A|-4--4---4-----/7-|-(7)---7\--5-5-0---|-2--2---2-2-2---|--4---4-2-2-2-2-3--|
E|-4--4---4-4---/7-|-(7)---7\--5-5-----|-2--2---------2-|-(2)--2-2-2-2-2-3--|


   C#5          E5             D5    B5               Bb5 A              Bb
e|-----------------|-------------------|----------------|-------------------|
B|-----------------|-------------------|----------------|------2-(2)-2------|
G|-6--6-6-6---6-/9-|-(9)-9-9\--7-7---4-|-4--4-4-4-4-4-3-|-2----------2------|
D|-6--6-6-6---6-/9-|-(9)-9-9\--7-7-0-4-|-4--4-4-4-4-4-3-|-2--2-------2------|
A|-4--4---4-----/7-|-(7)---7\--5-5-0-2-|-2--2---2-2-----|-0------------0-1--|
E|-4------4-4---/7-|-(7)---7\--5-5---2-|-2--------------|-------------------|


  B              Bb  A                  G                F#5           G5
                                    PM                   PM------------|
e|------------------|------------------|---3-3--3-3-----|-------------------||
B|------4-(4)-------|------2-(2)-------|---0-0--0-0-----|-------------------||
G|------------4-4-3-|-2----------2-2---|-0---0--0---0-0-|-------------------||
D|-4--4-------4-4-3-|-2--2-------2-2---|-0---0------0-0-|-------------------||
A|-2----------------|-0------------0---|----------------|-4-4-4-4-4-4-4-5s==||
E|------------------|----------------0-|-3---3------3-3-|-2-2-2-2-2-2-2-3s==||


[Verse]

  G#5                E5      G5         E5        G5         B5
  Gtr III                                                    Gtr IV
  PM--------------------------------------------|
e|------------------|------------------|--------------------|-----------------|
B|------------------|------------------|----------------5---|-----------------|
G|------------------|------------------|------------------0-|-4--4-4-4-4-4----|
D|------------------|------------------|------------------0-|-4--4-4-4-4-4----|
A|------------------|----------------5s|=(2)----------5-----|-2--2---2-2-2----|
E|-4-4-4-4-4-4-4-4\-|-0-0-0-0S=3-3-3---|-----0-0-0-/3-3-----|--------------2--|
 |
 | GtGtr I                                                    Gtr II
 |   PM---------------------------------------------------|
e|------------------|------------------|--------------------|-----------------|
B|------------------|------------------|--------------------|-----------------|
G|------------------|------------------|--------------------|-4--4-4-4-4-4-4--|
D|------------------|------------------|--------------------|-4--4-4-4-4-4-4--|
A|-6-6-6-6-6-6-6-6--|-2-2-2---/5-5-5-5-|--2--2-2---/5-5-5-5-|-2--2---2-2-2-2--|
E|-4-4-4-4-4-4-4-4--|-0-0-0-0-/3-3-3-3-|--0--0-0-0-/3-3-3-3-|-----------------|


                   F#G5  G#5
                           Gtr I
                           PM--------------
e|---------------------|------------------|
B|---------------------|------------------|
G|-4-4-4-4-4---4-------|------------------|
D|-4-4-4-4-4---4-------|------------------|
A|-2-----2-2---2-4-4-5s|=6-6-6-6-6-6-6-6--|
E|---------------2-2-3s|=4-4-4-4-4-4-4-4--|
 |
 |                       Gtr III
 |                         PM--------------
e|---------------------|------------------|
B|---------------------|------------------|
G|-4-----4---4-4-------|------------------|
D|-4-----4---4-4-------|------------------|
A|-2-----2-----2-4-4-5-|------------------|
E|---2-----------2-2-3s|=4-4-4-4-4-4-4-4\-|


  E5      G5         E5          G5
 ---|                 PM-|
e|------------------|----------------------|
B|------------------|----------------------|
G|------------------|----------------------|
D|------------------|----------------------|
A|-2-2-2---/5-5-5-5-|--2--2---2---/5-5-5-5-|
E|-0-0-0-0-/3-3-3-3-|--0--0---0-0-/3-3-3-3-|
 |
 |--------------------|     PM----|
e|------------------|------------------0---|
B|------------------|----------------------|
G|------------------|--------------------0-|
D|------------------|--------------------0-|
A|------------5---5s|=(2)------------5-----|
E|-0-0-0-0--3---3---|-----0-0-0-0-/3-3-----|


  B5                           F#5 G5  G#5                E5      G5
  Gtr II                                 Gtr I
                                         PM-----------------|
e|----------------|-------------------|------------------|------------------|
B|----------------|-------------------|------------------|------------------|
G|-4--4-4-4-4-4-4-|-4-4-4-4-4-4-------|------------------|------------------|
D|-4--4-4-4-4-4-4-|-4-4-4-4-4-4-------|------------------|------------------|
A|-2--2---2-2-2-2-|-2-----2-2-2-4-4-5s|=6-6-6-6-6-6-6-6--|-2-2-2---/5-5-5-5-|
E|----------------|-------------2-2-3s|=4-4-4-4-4-4-4-4--|-0-0-0-0-/3-3-3-3-|
 |
 | Gtr IV                               Gtr III
 |                                        PM---------------------|
e|----------------|-------------------|------------------|------------------|
B|----------------|-------------------|------------------|------------------|
G|-4--4-4-4-4-4---|-4-----4-4-4-------|------------------|------------------|
D|-4--4-4-4-4-4---|-4-----4-4-4-------|------------------|------------------|
A|-2--2---2-2-2---|-2-----2-2-2-4-4-5-|------------------|-----2------5---5-|
E|--------------2-|-2-----------2-2-3s|=4-4-4-4-4-4-4-4\-|-0-0---0-/3---3-3-|


   E5      G5         B5                                  C5
                      Gtr II
   PM|
e|------------------|-----------------|---------------------||
B|------------------|-----------------|---------------------||
G|------------------|-4---4-4-4-4-4-4-|-4-4-4-4-(4)-4-(4)-5-||
D|------------------|-4---4-4-4-4-4-4-|-4-4-4-4-(4)-4-(4)-5-||
A|-2-2-2----5-5-5-5-|-2---2---2-2-2-2-|-2---2-2-(2)-2-(2)-3-||
E|-0-0-0-0--3-3-3-3-|-----------------|-------------2-(2)-3-||
 |
 |                    Gtr IV
 | PM|      PM
e|--------------0---|-----------------|---------------------||
B|----------------0-|-----------------|---------------------||
G|----------------0-|-4-4-4-4-4-4-4---|-4---4-4-(4)-4-----5-||
D|----------------0-|-4-4-4-4-4-4-4---|-4---4-4-(4)-4-----5-||
A|-----2-0----5-----|-2---2---2-2-2---|-2---2-2-(2)-2-----3-||
E|-0-0-0---/3-3-----|---------------2-|-------2-(2)-2-----3-||


[Chorus]

   C#5          E5             D5    B5                                  C5
   Gtrs II, IV
e|-----------------|-------------------|----------------|-------------------|
B|-----------------|-------------------|----------------|-------------------|
G|-6--6-4-4---6-/9-|-(9)-9-9\--7-7---4-|-4--4-4-4---4---|--4---4-4-4-4-4-5--|
D|-6--6-4-4---6-/9-|-(9)-9-9\--7-7---4-|-4--4-4-4---4---|--4---4-4-4-4-4-5--|
A|-4--4---6-----/7-|-(7)-7-7\--5-5-5---|-2--2---2---2---|--2---2-2-2-2-2-3--|
E|-4--4---6-4---/7-|-(7)---7\--5-5-5---|-2--------2---2-|-(2)--2-2-2-2-2-3--|


   C#5          E5             D5    B5                                  C5
e|-----------------|-------------------|----------------|-------------------|
B|-----------------|-------------------|----------------|-------------------|
G|-6--6-6-6---6-/9-|-(9)-9-9\--7-7---4-|-4--4-4-4-4-4---|--4---4-4-4-4-4-5--|
D|-6--6-6-6---6-/9-|-(9)-9-9\--7-7-0-4-|-4--4-4-4-4-4---|--4---4-4-4-4-4-5--|
A|-4--4---4-----/7-|-(7)---7\--5-5-0---|-2--2---2-2-2---|--4---4-2-2-2-2-3--|
E|-4--4---4-4---/7-|-(7)---7\--5-5-----|-2--2---------2-|-(2)--2-2-2-2-2-3--|


   C#5          E5             D5    B5               Bb5 A              Bb
e|-----------------|-------------------|----------------|-------------------|
B|-----------------|-------------------|----------------|------2-(2)-2------|
G|-6--6-6-6---6-/9-|-(9)-9-9\--7-7---4-|-4--4-4-4-4-4-3-|-2----------2------|
D|-6--6-6-6---6-/9-|-(9)-9-9\--7-7-0-4-|-4--4-4-4-4-4-3-|-2--2-------2------|
A|-4--4---4-----/7-|-(7)---7\--5-5-0-2-|-2--2---2-2-----|-0------------0-1--|
E|-4------4-4---/7-|-(7)---7\--5-5---2-|-2--------------|-------------------|


   B              Bb  A
                                     PM
e|------------------|------------------|
B|------4-(4)-------|------2-(2)-------|
G|------------4-4-3-|-2----------2-2---|
D|-4--4-------4-4-3-|-2--2-------2-2---|
A|-2----------------|-0------------0---|
E|------------------|----------------0-|


   G                F#5              G5
e|---3-3--3-3-----|-----------------------||
B|---0-0--0-0-----|-----------------------||
G|-0---0--0---0-0-|-----------------------||
D|-0---0------0-0-|-----------------------||
A|----------------|-4-4-4-4-<5>--[0]h[1]--||
E|-3---3------3-3-|-2-2-2-2---------------||


[Interlude]

   G#5    E            G#5    E            G#5    E          C#5
   Gtr II
e|-------------------|-------------------|-----------------|----------------|
B|--------/9-9-9-9---|--------/9-9-9-9---|--------/9-9-9---|----------------|
G|--------/9-9-9-9---|--------/9-9-9-9---|--------/9-9-9---|-6--6--6-6-6-6--|
D|-6--6---/9-9-9-9p0-|-6--6---/9-9-9-9p0-|-6--6---/9-9-9-0-|-6--6--6-6-6-6--|
A|-6--6---/7-7-7-7p0-|-6--6---/7-7-7-7p0-|-6--6---/7-7-7-0-|-4--4--4-4-4-4--|
E|-4--4p0------------|-4--4p0------------|-4--4p0----------|----------------|


     C#5/D           G#5    E            G#5    E            G#5    E
e|-----------------|-------------------|-------------------|-------------------|
B|-----------------|--------/9-9-9-9---|--------/9-9-9-9---|--------/9-9-9-9---|
G|-6-6-6-6---------|--------/9-9-9-9---|--------/9-9-9-9---|--------/9-9-9-9---|
D|-6-6-6-6---------|-6--6---/9-9-9-9p0-|-6--6---/9-9-9-9p0-|-6--6---/9-9-9-9p0-|
A|-4-5-5-5-5-4-2p0-|-6--6---/7-7-7-7p0-|-6--6---/7-7-7-7p0-|-6--6---/7-7-7-7p0-|
E|-----------------|-4--4p0------------|-4--4p0------------|-4--4-0------------|


   C#5               C#5/D             G#5    E            G#5    E
e|---------------|-------------------|-------------------|--------------------|
B|---------------|-------------------|-----------9-9-9---|-----------9-9-9----|
G|-6--6-6-6--6-6-|-6---6-6-6---------|--------/9-9-9-9---|--------/9-9-9-9----|
D|-6--6-6-6--6-6-|-6---6-6-6-----(0)-|-6--6---/9-9-9-9p0-|-6--6---/9-9-9-9p0--|
A|-4--4---4--4-4-|-4-5---5-5p4-2p=0--|-6--6---/7-7-7-7p0-|-6--6---/7-7-7-7p0--|
E|---------------|-------------------|-4--4p0------------|-4--4p0-------------|


   G#5    E            C#5                C#5/D           B              Bb5
e|-------------------|----------------|-----------------|------------------|
B|-----------9-9-9---|----------------|-----------------|------4-(4)-------|
G|--------/9-9-9-9---|-6--6-6-6-6-6-6-|-6---6-6-6-------|-4------------4-3-|
D|-6--6---/9-9-9-9p0-|-6--6-6-6-6-6-6-|-6---6-6-6-------|-4--4---------4-3-|
A|-6--6---/7-7-7-7p0-|-4--4---4-4-4-4-|-4-5-5-5-5-4-2-0-|-2----------2-----|
E|-4--4p0------------|----------------|-----------------|------------------|


   A                  G                  F#5           G5
                                         Gtrs II, IV
e|------------------|----3-3-(3)-------|-----------------||
B|------2-(2)-2-2p0-|----0-------0-----|-----------------||
G|------2-(2)-2-2p0-|----0-------0---0-|-----------------||
D|-2--2-2-(2)-2-2p0-|----0-------0---0-|-----------------||
A|-0----------------|------------------|-4-4-4-4-4-4-4-5-||
E|------------------|-3------------3---|-2-2-2-2-2-2-2-3-||


[Verse]

  G#5                E5      G5         E5      G5         B5
  Gtr III                                                  Gtr IV
  PM-------------------|   PM---|       PM|   PM
e|------------------|------------------|------------------|-----------------|
B|------------------|------------------|----------------0-|-----------------|
G|------------------|------------------|--------------0-0-|-4--4-4-4-4-4----|
D|------------------|-----2------------|-----2------------|-4--4-4-4-4-4----|
A|-6----------------|--------------5-5-|-----2------5-----|-2--2---2-2-2----|
E|-4-4-4-4-4-4-4-4\-|-0-0---0S=3-3-3-3-|-0-0---0S=3-3-----|--------------2--|
 |
 | Gtr I                                                    Gtr II
 |   PM-------------------------------------------------|
e|------------------|------------------|------------------|-----------------|
B|------------------|------------------|------------------|-----------------|
G|------------------|------------------|------------------|-4--4-4-4-4-4-4--|
D|------------------|------------------|------------------|-4--4-4-4-4-4-4--|
A|-6-6-6-6-6-6-6-6--|-2-2-2---/5-5-5-5-|-2-2-2---/5-5-5-5-|-2--2---2-2-2-2--|
E|-4-4-4-4-4-4-4-4--|-0-0-0-0-/3-3-3-3-|-0-0-0-0-/3-3-3-3-|-----------------|


                     F#G5  G#5
                             Gtr I
                             PM--------------
e|-----------------------|------------------|
B|-----------------------|------------------|
G|-4-4-4-4-4--4----------|------------------|
D|-4-4-4-4-4--4----------|------------------|
A|-2-----2-2--2----4-4-5s|=6-6-6-6-6-6-6-6--|
E|-----------------2-2-3s|=4-4-4-4-4-4-4-4--|
 |
 |                         Gtr III
 |                         PM|   PM|   PM
e|-----------------------|------------------|
B|-----------------------|------------------|
G|-4-----4-4-(4)---------|------------------|
D|-4-----4-4-(4)---------|-----6------------|
A|-2-----2-2-(2)-4-4-4-5-|-----6------------|
E|-2-------------2-2-2-3-|-4-4---4-4-4-4-4\-|


  E5      G5         E5      G5
 ---|                PM|
e|------------------|-------------------|
B|------------------|-------------------|
G|------------------|-------------------|
D|------------------|-------------------|
A|-2-2-2---/5-5-5-5-|-2-2-2---/5-5-5-5--|
E|-0-0-0-0-/3-3-3-3-|-0-0-0-0-/3-3-3-3--|
 |
 | PM|   PM           PM|   PM
e|------------------|--------------0----|
B|------------------|----------------0--|
G|------------------|----------------0--|
D|------------------|----------------0--|
A|---2-2------5-5-5-|-----2------5------|
E|-0-0---0S=3---3-3-|-0-0---0-/3-3------|


  B5                             F#5 G5  G#5
  Gtr II                                   Gtr I
                                           PM----------|
e|----------------|---------------------|-----------------|
B|----------------|---------------------|-----------------|
G|-4--4-4-4-4-4-4-|-4-4-4-4-4---4-------|-----------------|
D|-4--4-4-4-4-4-4-|-4-4-4-4-4---4-------|-----------------|
A|-2--2---2-2-2-2-|-2-----2-2---2-4-4-5s|=6-6-6-6-6-6-6-6-|
E|----------------|---------------2-2-3s|=4-4-4-4-4-4-4-4-|
 |
 | Gtr IV                                 Gtr III
 |                                        PM|   PM|
e|----------------|---------------------|-----------------|
B|----------------|---------------------|-----------------|
G|-4--4-4-4-4-4---|-4-----4-4-4-4-------|-----------------|
D|-4--4-4-4-4-4---|-4-----4-4-4-4-------|-----------------|
A|-2--2---2-2-2---|-2-----2-----2-4-4-4-|-----6-----6-6-6-|
E|--------------2-|---2-----------2-2-2-|-4-4---4-4-------|


   E5      G5         E5      G5
   PM|                PM|
e|------------------|------------------|
B|------------------|------------------|
G|------------------|------------------|
D|------------------|------------------|
A|-2-2-2---/5-5-5-5-|-2-2-2----5-5-5-5-|
E|-0-0-0-0-/3-3-3-3-|-0-0-0-0--3-3-3-3-|
 |
 | PM|   PM           PM|      PM
e|------------------|------------0-0---|
B|------------------|------------0---0-|
G|------------------|------------0---0-|
D|------------------|------------0-----|
A|-----2------5-5-5-|-----2------------|
E|-0-0---0-/3-3-----|-0-0---0-/3-------|


   B5                                     C5
   Gtr II
e|------------------|------------------------||
B|------------------|------------------------||
G|-4--4---4-4-4-4-4-|-4---4-4-4-(4)-4-(4)-5--||
D|-4--4---4-4-4-4-4-|-4---4-4-4-(4)-4-(4)-5--||
A|-2--2-----2-2-2-2-|-2-----2-2-(2)-2-(2)-3--||
E|------------------|---------------2-(2)-3--||
 |
 | Gtr IV
e|------------------|------------------------||
B|------------------|------------------------||
G|-4--4-4-4-4-4-4---|-4-----4-4--4--4--4--5--||
D|-4--4-4-4-4-4-4---|-4-----4-4--4--4--4--5--||
A|-2--2-----2-2-2---|-2-----2-2--2--2--2--3--||
E|----------------2-|---2-----2--2--2--2--3--||


[Chorus]

   C#5          E5             D5    B5                                  C5
   Gtrs II, IV
e|-----------------|-------------------|----------------|-------------------|
B|-----------------|-------------------|----------------|-------------------|
G|-6--6-4-4---6-/9-|-(9)-9-9\--7-7---4-|-4--4-4-4---4---|--4---4-4-4-4-4-5--|
D|-6--6-4-4---6-/9-|-(9)-9-9\--7-7---4-|-4--4-4-4---4---|--4---4-4-4-4-4-5--|
A|-4--4---6-----/7-|-(7)-7-7\--5-5-5---|-2--2---2---2---|--2---2-2-2-2-2-3--|
E|-4--4---6-4---/7-|-(7)---7\--5-5-5---|-2--------2---2-|-(2)--2-2-2-2-2-3--|


   C#5          E5             D5    B5                                  C5
e|-----------------|-------------------|----------------|-------------------|
B|-----------------|-------------------|----------------|-------------------|
G|-6--6-6-6---6-/9-|-(9)-9-9\--7-7---4-|-4--4-4-4-4-4---|--4---4-4-4-4-4-5--|
D|-6--6-6-6---6-/9-|-(9)-9-9\--7-7-0-4-|-4--4-4-4-4-4---|--4---4-4-4-4-4-5--|
A|-4--4---4-----/7-|-(7)---7\--5-5-0---|-2--2---2-2-2---|--4---4-2-2-2-2-3--|
E|-4--4---4-4---/7-|-(7)---7\--5-5-----|-2--2---------2-|-(2)--2-2-2-2-2-3--|


   C#5          E5             D5    B5               Bb5 A              Bb
e|-----------------|-------------------|----------------|-------------------|
B|-----------------|-------------------|----------------|------2-(2)-2------|
G|-6--6-6-6---6-/9-|-(9)-9-9\--7-7---4-|-4--4-4-4-4-4-3-|-2----------2------|
D|-6--6-6-6---6-/9-|-(9)-9-9\--7-7-0-4-|-4--4-4-4-4-4-3-|-2--2-------2------|
A|-4--4---4-----/7-|-(7)---7\--5-5-0-2-|-2--2---2-2-----|-0------------0-1--|
E|-4------4-4---/7-|-(7)---7\--5-5---2-|-2--------------|-------------------|


  B              Bb  A                  G                F#5           G5
                                    PM                   PM------------|
e|------------------|------------------|---3-3--3-3-----|------------------|
B|------4-(4)-------|------2-(2)-------|---0-0--0-0-----|------------------|
G|------------4-4-3-|-2----------2-2---|-0---0--0---0-0-|------------------|
D|-4--4-------4-4-3-|-2--2-------2-2---|-0---0------0-0-|------------------|
A|-2----------------|-0------------0---|----------------|-4-4-4-4-4-4-4-5--|
E|------------------|----------------0-|-3---3------3-3-|-2-2-2-2-2-2-2-3--|


   Gtr II
e|----------------------------|---------------------|
B|----------------------------|---------------------|
G|----------------------------|---------------------|
D|----------------------------|---------------------|
A|-6------------20p-----(20)--|--(20)---(20)--------|
E|-4s==19-[19]-[19]----([19])-|-([19])-([19])-------|
 |
 | Gtr IV
 |                  ~~
e|----------------------------|---------------------|
B|----------------------------|---------------------|
G|----------------------------|---------------------|
D|----------------------------|---------------------|
A|-x----------------xs========|====x/---------------|
E|-x--/19---------------------|---------------------|



************************************

| x    Dead note
| (n)  Ghost note
| p    Pull-off
| >    Accented note
| /    Slide up
| \    Slide down
| <>   Harmonic
| ~    Vibrato

************************************
Suggest correction
comments
print report bad tab
15 comments total. Showing first comments.
0 reply
SsPunk 120 May 17, 2004 12:00 AM

how can this tab be correct it has like 5 guitars nirvana had 1

0 reply
SsPunk 120 May 17, 2004 12:00 AM

how can this tab be correct it has like 5 guitars nirvana had 1

-1 reply
Lazlow 35 Dec 24, 2004 12:00 AM

... kurt was the only guitarist... and um... it's in drop D... and um... it HAS ONE GUITAR!!!...

guest
You may want to rate the tab now too:
select rating
Wanna post a correction for this tab? Suggest correction