Oops, an error
Loading. Please wait.

Frances Farmer Will Have Her Revenge On Seattle tab

version 6
version 6
by Nirvana
907 views 24 this week
2 commentsread comments
1 2 3 4 5
3 more votes to show rating
add to favorites
×
Save as Personal and add changes to this tab that will be seen only by you. Learn more ›
×
You can save this tab as Personal to edit and correct it or add notes. All changes will be seen only by you. Learn more »
launch autoscroll
font size
0
reset
how to read this tab
guitar tuner
backing track
0:00
0:00
edit
Autoscroll
slow
fast
+/-
esc
set tempo
stop
Author
Tuning - Half a step down

e|---------------------------------------------------------------------------|
B|-----Verse-----------------------------------------------------------------|
G|---------------------------------------------------------------------------|
D|--6-6-6-6-6-6-6-6--2-2-2-2--5-5-5-5--2-2-2-2--5-5-5-5----------------------|
A|--6-6-6-6-6-6-6-6--2-2-2-2--5-5-5-5--2-2-2-2--5-5-5-5----------------------|
E|--4-4-4-4-4-4-4-4--0-0-0-0--3-3-3-3--0-0-0-0--3-3-3-3----------------------|
    P P P P P P P P  P P P P  P P P P  P P P P 

e|---------------------------------------------------------------------------|
B|---------------------------------------------------------------------------|
G|--4--4--4-4-4-4-4-4--4--4-4------------------------------------------------|
D|--4--4--4-4-4-4-4-4--4--4-4-----------6--Back-to-verse---------------------|
A|--2--2--2-2-2-2-0-2--2--0-2-----------6------------------------------------|
E|-----------------------------2--2--3--4------------------------------------|
    D  D  U D U D U D  D  U D  D  D  D  D
                                        P

e|--this-is-the-progession-right-before-the-chorus-and-in-between-the-chorus-|
B|---------------------------------------------------------------------------|
G|--4--4--4-4-4-4-4-4--4--4-4-4-4----Goes-to-next-part-----------------------|
D|--4--4--4-4-4-4-4-4--4--4-4-4-4------down-below----------------------------|
A|--2--2--2-2-2-2-0-2--2--0-2-0-2--------------------------------------------|
E|---------------------------------------------------------------------------|
    D  D  U D U D U D  D  U D U D

e|------Chorus---------------------------------------------------------------|
B|---------------------------------------------------------------------------|
G|--5-6--6--6-6-6-6---9--9---7-7-7-------------------------------------------|
D|--5-6--6--6-6-6-6---9--9---7-7-7-------------------------------------------|
A|--3-4--4--4-4-4-4---7--7---5-5-5-------------------------------------------|
E|--3-4--4--4-4-4-4---7--7---5-5-5-------------------------------------------|
    U D  D  U D U D   D  D   D D D

e|---------Right-before-going-back-into-verse-and-before-bridge--------------|
B|---------------------------------------------------------------------------|
G|--4--4--4-4-4-4-2-2--2--2-2-2-2-4-4--4--4-4-4-4-2-2--2--2-2-2-2------------|
D|--4--4--4-4-4-4-2-2--2--2-2-2-2-4-4--4--4-4-4-4-2-2--2--2-2-2-2------------|
A|--2--2--2-2-2-2-0-0--0--0-0-0-0-0-2--2--2-2-2-2-0-0--0--0-0-0-0------------|
E|---------------------------------------------------------------------------|
    D  D  U D U D U D  D  U D U D U D  D  U D U D U D  D  U D U D

e|---------------------------------------------------------------------------|
B|-Into-bridge-----Bridge-part-----------------------------------------------|
G|--^----------------^----------------------6--6--6-6-6-6--Finish-out-the----|
D|--5...--4-4-4----6-6--6-6--6-6---9-9------6--6--6-6-6-6--measure-with------|
A|--5...--4-4-4----6-6--6-6--6-6---9-9-X3---4--4--4-4-4-4--this-chord-with---|
E|--3...--2-2-2----4-4--4-4--4-4---7-7---------------------all-down-strokes--|
    D     D D D    D U  U D  D U   D D      D  D  U D D D

e|---------------------------------------------------------------------------|
B|---------------------------------------------------------------------------|
G|--4--4--4-4-4-4-2-2--2--2-2-2-2--------------------------------------------|
D|--4--4--4-4-4-4-2-2--2--2-2-2-2----5...--4...-----Back-to-verse-and--------|
A|--2--2--2-2-2-2-0-0--0--0-0-0-0----5...--4...-----then-last-chorus---------|
E|-----------------------------------3...--2...------------------------------|
    D  D  U D U D U D  D  U D U D    D     D

************************************

| ... Just play the chord with down strokes til you get to next chord
| P   Palm mute
| x   Dead note
| g   Grace note
| (n) Ghost note
| h   Hammer-on
| p   Pull-off
| r   Release
| >   Accented note
| t   Tapping
| b   Bend
| br  Bend release
| pb  Pre-bend
| pbr Pre-bend release
| /   Slide up
| \   Slide down
| ~   Vibrato
| s   Slap
| P   Pop
| TR  Trill
| N   Tremolo

************************************

            
            
Suggest correction
Creating personal tab
Creating personal tab
You can edit any tab online and save it as your Personal.

You can edit, replace or remove any tab part or add personal notes – all changes will be seen only by you.

Personal tabs can be accessed anytime from any device, even offline.
Learn more »
Give kudos to tab author, rate the tab!
1 2 3 4 5
comments
print report bad tab
2 comments total.
0 reply
OZZtin 55 Apr 10, 2016 09:23 PM

Guys plz let me know what you think of this tab. I just wanted to make a tab that had the right up and down strumming patterns cuz it looks like a lot of people play it differently on youtube and from what I can hear and assure you that this is the exact way Kurt played this song in the recording

guest
You may want to rate the tab now too:
select rating
Wanna post a correction for this tab? Suggest correction