Oops, an error
Loading. Please wait.

Heart Shaped Box Tab

version 2
version 2

Solo

82 views 21 this week
no commentswrite comment
1 2 3 4 5
2 more votes to show rating
add to favorites
launch autoscroll
font size
0
reset
how to read this tab
guitar tuner
Autoscroll
slow
fast
+/-
esc
set tempo
stop
Help us to improve Ultimate-Guitar.com Take our survey!
×
Author
Difficulty
Tuning
intermediate
D A D G B E
About this tab version
No existing tab for this solo. Was this info helpful? Yes No
Solo version from Guitar Hero II (timestamp to relevant part): https://youtu.be/KQMT0s5U7ck?t=2m57s

Play the original solo (check top rated UG tabs) and then add the following:

-------------------------------------------------------------
-------------------------------------------------------------
------5-7-7b8-7-5-4-5---5p4-2p0-2h4p2------------------------
--5-7--------------------------------------------------------
------------------------------------------------/------------
-----------------------------------------------slide---------

------------------------5-5-5-5-5p3--------------------------
--------------7---7-5-7-------------5-3---3-5--3--3p1p0---2--
--------5---7---7-----------------------5-----5-----------2--
----5-7---------------------------------------------------0--
--7----------------------------------------------------------
-------------------------------------------------------------
Suggest correction
Give kudos to tab author, rate the tab!
1 2 3 4 5
comments
print report bad tab
guest
You may want to rate the tab now too:
select rating
Wanna post a correction for this tab? Suggest correction