Oops, an error
Loading. Please wait.

Heart Shaped Box Tab

version 1
version 1
2,172,926 views 3,894 this week
249 commentsread comments
1 2 3 4 5
x 754
add to favorites
launch autoscroll
font size
0
reset
how to read this tab
guitar tuner
Autoscroll
slow
fast
+/-
esc
set tempo
stop
Help us to improve Ultimate-Guitar.com Take our survey!
×
Author
Tuning
C# G# C# F# A# D#
[Intro]

e|-------------------------------------------------------------------------|
B|-------------------------------------------------------------------------|
G|-----2----------------------------------2------------------------------0-|
D|---2---2-----3----------0-----0-----2-2---2-----3------2/4-4---4----4--0-|
A|-0---------3---3-----0-----0---0----0---------3--------------0---3--3----|
D|---------3---------0------------------------3-----3--0-------------------|


[Verse 1]

e|-----------------------------------------------------------------------------|
B|-----2-----------------------------------------------------------------------|
G|-----2---------------------------------------2-------------------------------|
D|-2-2---2------3-----------0---------0------2---2------3-------2/4-4--4------0| x4
A|-0----------3---3-----0-3--------0--0----0----------3---3----------0---3-3--0|
D|----------3---------0----------0------------------3---------0----------------|

On the 4th and last time in each verse, the part with the slide in the above riff
is played with distortion so that it moves into the distorted chorus.


[Chorus]

e|-----------------------------------------------------|
B|-----------------------------------------------------|
G|---------4b5----------4b5-------------------4b5------| 
D|---2-2------------3-3---------------3---3------------|
A|---0-0------------3-3-----------0-0---0---3----------|
D|------------------3-3-----------0-0------------------|
                                                             x3
e|------------------------------------------------------|
B|---------4b5-----------4b5----------------------------|
G|---------4b5-----------4b5-------------------4-5------|
D|---2-2------------3-3---------------4---3-------------|
A|---0-0------------3-3-----------0-0---0---3-----------|
D|------------------3-3-----------0-0-------------------|


e|----------------------------------------------------------------------------|
B|----------------------------------------------------------------------------|
G|------------------------4b5-----4b5---------------------------------------0-|
D|--3-3-3-3-3-3-3-3--0--0-------0--------0---3-3-3-3-3-3-3-3--0-0-0-0-0-----0-|
A|--3-3-3-3-3-3-3-3--0--0-------0--------0---3-3-3-3-3-3-3-3--0-0-0-0-0-3-3---|
D|--3-3-3-3-3-3-3-3--0--0-------0------------3-3-3-3-3-3-3-3--0-0-0-0-0-------|
            

[Verse 2]

e|-----------------------------------------------------------------------------|
B|-----2-----------------------------------------------------------------------|
G|-----2---------------------------------------2-------------------------------|
D|-2-2---2------3-----------0---------0------2---2------3-------2/4-4--4------0| x4
A|-0----------3---3-----0-3--------0--0----0----------3---3----------0---3-3--0|
D|----------3---------0----------0------------------3---------0----------------|


[Chorus]

e|-----------------------------------------------------|
B|-----------------------------------------------------|
G|---------4b5----------4b5-------------------4b5------| 
D|---2-2------------3-3---------------3---3------------|
A|---0-0------------3-3-----------0-0---0---3----------|
D|------------------3-3-----------0-0------------------|
                                                          x3
e|------------------------------------------------------|
B|---------4b5-----------4b5----------------------------|
G|---------4b5-----------4b5-------------------4-5------|
D|---2-2------------3-3---------------4---3-------------|
A|---0-0------------3-3-----------0-0---0---3-----------|
D|------------------3-3-----------0-0-------------------|


e|----------------------------------------------------------------------------|
B|----------------------------------------------------------------------------|
G|------------------------4b5-----4b5---------------------------------------0-|
D|--3-3-3-3-3-3-3-3--0--0-------0--------0---3-3-3-3-3-3-3-3--0-0-0-0-0-----0-|
A|--3-3-3-3-3-3-3-3--0--0-------0--------0---3-3-3-3-3-3-3-3--0-0-0-0-0-3-3---|
D|--3-3-3-3-3-3-3-3--0--0-------0------------3-3-3-3-3-3-3-3--0-0-0-0-0-------|
            

[Solo]

e|-------------------------------------------------------------------|
B|-------8b10----br8---6------6b8br6----------5b6br5------3---1---0--|
G|-----------------------------------------3-------------------------|
D|---7---------------------5---------------3-------------------------|
A|-------------------------------------------------------------------|
D|-------------------------------------------------------------------|  

e|-------------------------------------------------------------------|
B|-------8b10br8--------------6b8br6----------5b6br5------3---1---0--|
G|-----------------------------------------3-------------------------|
D|---7---------------------5---------------3-------------------------|
A|-------------------------------------------------------------------|
D|-------------------------------------------------------------------|   

e|----------------|-------------------------|
B|----------------|-------------------------|
G|--2-------------|---------2---------------|
D|--2-------------|---------2---------------|
A|--0-------------|---------0---------------|
D|----------------|-------------------------|
On this last part, the A chord is struck twice. Turn the fuzz off just before
playing it the second time, and then go back to clean verse.


[Verse 3] 

e|-----------------------------------------------------------------------------|
B|-----2-----------------------------------------------------------------------|
G|-----2---------------------------------------2-------------------------------|
D|-2-2---2------3-----------0---------0------2---2------3-------2/4-4--4------0| x4
A|-0----------3---3-----0-3--------0--0----0----------3---3----------0---3-3--0|
D|----------3---------0----------0------------------3---------0----------------|


[Chorus]

e|-----------------------------------------------------|
B|-----------------------------------------------------|
G|---------4b5----------4b5-------------------4b5------| 
D|---2-2------------3-3---------------3---3------------|
A|---0-0------------3-3-----------0-0---0---3----------|
D|------------------3-3-----------0-0------------------|
                                                          x3
e|------------------------------------------------------|
B|---------4b5-----------4b5----------------------------|
G|---------4b5-----------4b5-------------------4-5------|
D|---2-2------------3-3---------------4---3-------------|
A|---0-0------------3-3-----------0-0---0---3-----------|
D|------------------3-3-----------0-0-------------------|

e|------------------------------------------|
B|------------------------------------------|
G|------------------------4b5-----4b5-------| x2
D|--3-3-3-3-3-3-3-3--0--0-------0--------0--|
A|--3-3-3-3-3-3-3-3--0--0-------0--------0--|
D|--3-3-3-3-3-3-3-3--0--0-------0-----------|

e|----------------------------------------------------------------------------|
B|----------------------------------------------------------------------------|
G|------------------------4b5-----4b5---------------------------------------0-|
D|--3-3-3-3-3-3-3-3--0--0-------0--------0---3-3-3-3-3-3-3-3--0-0-0-0-0-----0-|
A|--3-3-3-3-3-3-3-3--0--0-------0--------0---3-3-3-3-3-3-3-3--0-0-0-0-0-3-3---|
D|--3-3-3-3-3-3-3-3--0--0-------0------------3-3-3-3-3-3-3-3--0-0-0-0-0-------|


***********************************

| /   Slide up
| b   Bend
| br  Bend release

***********************************
Suggest correction
comments
print report bad tab
249 comments total. Showing first comments.
+86 reply
mookieman 131 Aug 30, 2003 12:00 AM

One thing, sorry, this is Drop D Half step down, i.e.:

Eb
Bb
Gb
Db
Ab
Db

+2 reply
Noah Smith 10 Sep 06, 2003 12:00 AM

not bad, not bad at all

+1 reply
bl@ck lightning 10 Oct 24, 2003 12:00 AM

very good

guest
You may want to rate the tab now too:
select rating
Wanna post a correction for this tab? Suggest correction