Oops, an error
Loading. Please wait.
We have an official Heart Shaped Box tab made by UG professional guitarists. Check out the tab »
×

Heart Shaped Box bass

by Nirvana
134,656 views 72 this week
45 commentsread comments
1 2 3 4 5
x 70
add to favorites
×
Save as Personal and add changes to this tab that will be seen only by you. Learn more ›
×
You can save this tab as Personal to edit and correct it or add notes. All changes will be seen only by you. Learn more »
launch autoscroll
font size
0
reset
guitar tuner
backing track
0:00
0:00
edit
Autoscroll
slow
fast
+/-
esc
set tempo
stop
Author
Drop D

[Intro]

G|-------------------|
D|-------------------|   
A|-------------------|
D|-7---3---0---------|(x2)


[Verse]

G|--------------------------------|
D|--------------------------------| 
A|--------------------------------|
D|-7-7-7--3-3-3--0-0-0-0-0-0-0-0--|(x8)


[Chorus]

G|--------------------------------|
D|--------------------------------|
A|-----9b-----5b------------------|
D|-7-7----3-3----7-7-7-7-7-7-7-7--|(x6)
|
G|---------------------------|
D|---------------------------| 
A|---------------------------|
D|-3-3-3-3-3-3-3-3/7-let-ring|(x2)


[Bridge]

G|------------------------------|
D|------------------------------|
A|-----9b-----7b-----5b---------|
D|-7-7----5-5----3-3---9-7-5-3--|(x2)

************************************

| b  Bend
| /  Slide up

************************************

            
            
Suggest correction
Creating personal tab
Creating personal tab
You can edit any tab online and save it as your Personal.

You can edit, replace or remove any tab part or add personal notes – all changes will be seen only by you.

Personal tabs can be accessed anytime from any device, even offline.
Learn more »
comments
print report bad tab
45 comments total. Showing first comments. show 1 bad comment
+8 reply
kdhugc 10 Nov 10, 2003 07:00 PM

Basschick,
You have this basically right but the way you have it tabbed is in Drop D even though your string lines read EADG. I'm thinking you decided to tab it in Drop D but didn't change the strings to DADG.

0 reply
paulicrack 10 Oct 25, 2004 08:00 PM

nice tab, sounded good

guest
You may want to rate the tab now too:
select rating
Wanna post a correction for this tab? Suggest correction