Oops, an error
Loading. Please wait.
We have an official Heart Shaped Box tab made by UG professional guitarists. Check out the tab »
×

Heart Shaped Box bass

by Nirvana
7,193 views 1 this week
3 commentsread comments
1 2 3 4 5
x 3
add to favorites
×
Save as Personal and add changes to this tab that will be seen only by you. Learn more ›
×
You can save this tab as Personal to edit and correct it or add notes. All changes will be seen only by you. Learn more »
launch autoscroll
font size
0
reset
guitar tuner
backing track
0:00
0:00
edit
Autoscroll
slow
fast
+/-
esc
set tempo
stop
-------------------------------------------------------------------------------
			     Heart Shaped Box (Bass Tab)- Nirvana
-------------------------------------------------------------------------------

Tabbed By : Xziadin 
 
Tuning: Half step Down EbAbDbGb

Verse:(The bass comes in with the vocals and drums)                                   
Gb|-----------------------------------------------------------------------|
Db|-----------------------------------------------------------------------|
Ab|-2-2-2-2---------------5---5---5-----2-2-2-2---------------5---5---5---|
Eb|----------3-3-3-3--0-0---0---0---0------------3-3-3-3--0-0---0---0---0-|

Gb|-----------------------------------------------------------------------|
Db|-----------------------------------------------------------------------|
Ab|-2-2-2-2---------------5---5---55----2-2-2-2---------------5---5---5---|
Eb|----------3-3-3-3--0-0---0---0---0------------3-3-3-3--0-0---0---0---0-|

Gb|-----------------------------------------------------------------------|
Db|-----------------------------------------------------------------------|
Ab|-2-2-2-2---------------5---5---5-----2-2-2-2---------------5---5-------|
Eb|----------3-3-3-3--0-0---0---0---0------------3-3-3-3--0-0---0---0-0-0-|

Gb|-----------------------------------------------------------------------|
Db|-----------------------------------------------------------------------|
Ab|-2-2-2-2---------------5---5---5-----2-2-2-2---------------5---5-------|
Eb|----------3-3-3-3--0-0---0---0---0------------3-3-3-3--0-0---0---0-0-0-|

Chorus:

Gb|-----------------------------------------------------------------------|
Db|-----4b----------------------------------4b----------------------------|
Ab|-2-2----------5b-------5---5---5b----2-2----------5b-------5---5---5---|
Eb|----------3-3------0-0---0---0---5------------3-3------0-0---0---0---5-|

Gb|-----------------------------------------------------------------------|
Db|-----4b----------------------------------4b----------------------------|
Ab|-2-2----------5b-------5---5---5b----2-2----------5b-------5---5---5---|
Eb|----------3-3------0-0---0---0----------------3-3------0-0---0---0---5-|

Gb|-----------------------------------------------------------------------|
Db|-----4b----------------------------------4b----------------------------|
Ab|-2-2----------5b-------5---5---5b----2-2----------5b-------5---5---5---|
Eb|----------3-3------0-0---0---0---5------------3-3------0-0---0---0---5-|

Gb|-----------------------------------------------------------------------|
Db|-----------------------------------------------------------------------|
Ab|-----------------------------------------------------------------------|
Eb|-3-3-3-3-3-3--/7-----0-0-0-0-0-0-0---3-3-3-3-3-3--/7-----0-0-0-0-0-0-0-|

Verse:

Gb|-----------------------------------------------------------------------|
Db|-----------------------------------------------------------------------|
Ab|-2-2-2-2---------------5---5---5-----2-2-2-2---------------5---5---5---|
Eb|----------3-3-3-3--0-0---0---0---0------------3-3-3-3--0-0---0---0---0-|

Gb|-----------------------------------------------------------------------|
Db|-----------------------------------------------------------------------|
Ab|-2-2-2-2---------------5---5---55----2-2-2-2---------------5---5---5---|
Eb|----------3-3-3-3--0-0---0---0---0------------3-3-3-3--0-0---0---0---0-|

Gb|-----------------------------------------------------------------------|
Db|-----------------------------------------------------------------------|
Ab|-2-2-2-2---------------5---5---5-----2-2-2-2---------------5---5-------|
Eb|----------3-3-3-3--0-0---0---0---0------------3-3-3-3--0-0---0---0-0-0-|

Gb|-----------------------------------------------------------------------|
Db|-----------------------------------------------------------------------|
Ab|-2-2-2-2---------------5---5---5-----2-2-2-2---------------5---5-------|
Eb|----------3-3-3-3--0-0---0---0---0------------3-3-3-3--0-0---0---0-0-0-|

Chorus:

Gb|-----------------------------------------------------------------------|
Db|-----4b----------------------------------4b----------------------------|
Ab|-2-2----------5b-------5---5---5b----2-2----------5b-------5---5---5---|
Eb|----------3-3------0-0---0---0---5------------3-3------0-0---0---0---5-|

Gb|-----------------------------------------------------------------------|
Db|-----4b----------------------------------4b----------------------------|
Ab|-2-2----------5b-------5---5---5b----2-2----------5b-------5---5---5---|
Eb|----------3-3------0-0---0---0----------------3-3------0-0---0---0---5-|

Gb|-----------------------------------------------------------------------|
Db|-----4b----------------------------------4b----------------------------|
Ab|-2-2----------5b-------5---5---5b----2-2----------5b-------5---5---5---|
Eb|----------3-3------0-0---0---0---5------------3-3------0-0---0---0---5-|

Gb|-----------------------------------------------------------------------|
Db|-----------------------------------------------------------------------|
Ab|-----------------------------------------------------------------------|
Eb|-3-3-3-3-3-3--/7-----0-0-0-0-0-0-0---3-3-3-3-3-3--/7-----0-0-0-0-0-0-0-|

During Solo:

Gb|-----------------------------------------------------------------------|
Db|-----4b-------2b-------------------------4b-------2b-------------------|
Ab|-2-2-------------------5b--5-3-1-0---2-2-------------------5b--5-3-1-0-|
Eb|----------5-5------3-3------------------------5-5------3-3-------------|

Verse:

Gb|-----------------------------------------------------------------------|
Db|-----------------------------------------------------------------------|
Ab|-2-2-2-2---------------5---5---5-----2-2-2-2---------------5---5---5---|
Eb|----------3-3-3-3--0-0---0---0---0------------3-3-3-3--0-0---0---0---0-|

Gb|-----------------------------------------------------------------------|
Db|-----------------------------------------------------------------------|
Ab|-2-2-2-2---------------5---5---5-----2-2-2-2---------------5---5---5---|
Eb|----------3-3-3-3--0-0---0---0---0------------3-3-3-3--0-0---0---0---0-|

Gb|-----------------------------------------------------------------------|
Db|-----------------------------------------------------------------------|
Ab|-2-2-2-2---------------5---5---5-----2-2-2-2---------------5---5---5---|
Eb|----------3-3-3-3--0-0---0---0---0------------3-3-3-3--0-0---0---0---0-|

Gb|-----------------------------------------------------------------------|
Db|-----------------------------------------------------------------------|
Ab|-2-2-2-2---------------5---5---5-----2-2-2-2---------------5---5-------|
Eb|----------3-3-3-3--0-0---0---0---0------------3-3-3-3--0-0---0---0-0-0-|

Gb|-----------------------------------------------------------------------|
Db|-----------------------------------------------------------------------|
Ab|-2-2-2-2---------------5---5---5-----2-2-2-2---------------5---5-------|
Eb|----------3-3-3-3--0-0---0---0---0------------3-3-3-3--0-0---0---0-0-0-|

Chorus:

Gb|-----------------------------------------------------------------------|
Db|-----4b----------------------------------4b----------------------------|
Ab|-2-2----------5b-------5---5---5b----2-2----------5b-------5---5---5---|
Eb|----------3-3------0-0---0---0---5------------3-3------0-0---0---0---5-|

Gb|-----------------------------------------------------------------------|
Db|-----4b----------------------------------4b----------------------------|
Ab|-2-2----------5b-------5---5---5b----2-2----------5b-------5---5---5---|
Eb|----------3-3------0-0---0---0----------------3-3------0-0---0---0---5-|

Gb|-----------------------------------------------------------------------|
Db|-----4b----------------------------------4b----------------------------|
Ab|-2-2----------5b-------5---5---5b----2-2----------5b-------5---5---5---|
Eb|----------3-3------0-0---0---0---5------------3-3------0-0---0---0---5-|

Gb|-----------------------------------------------------------------------|
Db|-----------------------------------------------------------------------|
Ab|-----------------------------------------------------------------------|
Eb|-3-3-3-3-3-3--/7-----0-0-0-0-0-0-0---3-3-3-3-3-3--/7-----0-0-0-0-0-0-0-|

Gb|-----------------------------------------------------------------------|
Db|-----------------------------------------------------------------------|
Ab|-----------------------------------------------------------------------|
Eb|-3-3-3-3-3-3--/7-----0-0-0-0-0-0-0---3-3-3-3-3-3--/7-------------------|

| b  bend
| /  slide up

            
            
Suggest correction
Creating personal tab
Creating personal tab
You can edit any tab online and save it as your Personal.

You can edit, replace or remove any tab part or add personal notes – all changes will be seen only by you.

Personal tabs can be accessed anytime from any device, even offline.
Learn more »
Give kudos to tab author, rate the tab!
1 2 3 4 5
comments
print report bad tab
3 comments total.
0 reply
donvee2 10 Jul 06, 2010 12:07 PM

Not to be a jerk.....but you forgot to drop D it.

0 reply
trizzle08 32 Aug 10, 2014 08:26 PM

this song should be in drop d based on how it was tabbed

0 reply
Tapwater 134 Dec 04, 2015 01:20 PM, edited at 06:20 pm

Tuning wrong and notes not accurate in some parts. Thought I would give it a two star as 1 star seems a bit harsh.

guest
You may want to rate the tab now too:
select rating
Wanna post a correction for this tab? Suggest correction