Oops, an error
Loading. Please wait.
We have an official Heart Shaped Box tab made by UG professional guitarists. Check out the tab »
×

Heart Shaped Box bass

by Nirvana
400 views 6 this week
no commentswrite comment
1 2 3 4 5
2 more votes to show rating
add to favorites
×
Save as Personal and add changes to this tab that will be seen only by you. Learn more ›
×
You can save this tab as Personal to edit and correct it or add notes. All changes will be seen only by you. Learn more »
launch autoscroll
font size
0
reset
guitar tuner
backing track
0:00
0:00
edit
Autoscroll
slow
fast
+/-
esc
set tempo
stop
About this tab version
Besides being more detailed than what's up already, none of the other versions are in the correct tuning. Was this info helpful? Yes No
NIRVANA
“HEART SHAPED BOX”


Tuning: Drop Db


VERSE

Gb|-----------------------------------|-----------------------------------|
Db|-----------------------------------|-----------------------------------|
Ab|-----------------------5---5---5---|-----------------------5---5---5---|
Db|-7-7-7-7\-3-3-3-3/-0-0---0---0---0-|-7-7-7-7\-3-3-3-3/-0-0---0---0---0-|

Gb|-----------------------------------|------------------------------------|
Db|-----------------------------------|------------------------------------|
Ab|-----------------------5---5---5---|-----------------------5---5--------|
Db|-7-7-7-7\-3-3-3-3/-0-0---0---0---0-|-7-7-7-7\-3-3-3-3/-0-0---0---0--4/5-|

Gb|-----------------------------------|-----------------------------------|
Db|-----------------------------------|-----------------------------------|
Ab|-----------------------5---5---5---|-----------------------5---5---5---|
Db|-7-7-7-7\-3-3-3-3/-0-0---0---0---0-|-7-7-7-7\-3-3-3-3/-0-0---0---0---0-|

Gb|-----------------------------------|-----------------------------------|
Db|-----------------------------------|-----------------------------------|
Ab|-----------------------5---5---5---|-----------------------5---5---5-5-|
Db|-7-7-7-7\-3-3-3-3/-0-0---0---0---0-|-7-7-7-7\-3-3-3-3/-0-0---0---0-----|


CHORUS

Gb|-----------------------------------|-------------------------------------|
Db|-----------------------------------|-------------------------------------|
Ab|-----9b------4b------5---5p4---4---|-----9b------4b------5---5---5-5p4---|
Db|-7-7-----3-3-----0-0---0-----5---5-|-7-7-----3-3-----0-0---0---0-------5-|

Gb|-------------------------------5-|---------------------------------|
Db|-----------------------------5---|---------------------------------|
Ab|-----9b------4b------5---x-x-----|-----9b------4b------5---5---5-5-|
Db|-7-7-----3-3-----0-0---0---------|-7-7-----3-3-----0-0---0---0-----|

Gb|-----------------------------------|---------------------------------|
Db|-----------------------------------|---------------------------------|
Ab|-----9b------4b------5---5p4---4---|-----9b------4b------5---5---5---|
Db|-7-7-----3-3-----0-0---0-----5---5-|-7-7-----3-3-----0-0---0---0---0-|


POST CHORUS

Gb|-----------------------------|---------------------------------|
Db|-------------------0--0--0-0-|---------------------------------|
Ab|-------------------0--0--0-0-|---------------------------------|
Db|-3-3-3-3-3-3-3/10\-0--0--0-0-|-3-3-3-3-3-3-3/10\-0--0--0-(3)/5-|


VERSE

Gb|-----------------------------------|-----------------------------------|
Db|-----------------------------------|-----------------------------------|
Ab|-----------------------5---5---5---|-----------------------5---5---5---|
Db|-7-7-7-7\-3-3-3-3/-0-0---0---0---0-|-7-7-7-7\-3-3-3-3/-0-0---0---0---0-|

Gb|-----------------------------------|------------------------------------|
Db|-----------------------------------|------------------------------------|
Ab|-----------------------5---5---5---|-----------------------5---5--------|
Db|-7-7-7-7\-3-3-3-3/-0-0---0---0---0-|-7-7-7-7\-3-3-3-3/-0-0---0---0--3/5-|

Gb|-----------------------------------|-----------------------------------|
Db|-----------------------------------|-----------------------------------|
Ab|-----------------------5---5---5---|-----------------------5---5---5---|
Db|-7-7-7-7\-3-3-3-3/-0-0---0---0---0-|-7-7-7-7\-3-3-3-3/-0-0---0---0---0-|

Gb|-----------------------------------|-----------------------------------|
Db|-----------------------------------|-----------------------------------|
Ab|-----------------------5---5---5---|-----------------------------------|
Db|-7-7-7-7\-3-3-3-3/-0-0---0---0---0-|-7-7-7-7\-3-3-3-3/-0-0-0-0-0-0-0-0-|


CHORUS

Gb|-----------------------------------|-------------------------------------|
Db|-----------------------------------|-------------------------------------|
Ab|-----9b------4b------5---5p4---4---|-----9b------4b------5---5---5-5p4---|
Db|-7-7-----3-3-----0-0---0-----5---5-|-7-7-----3-3-----0-0---0---0-------5-|

Gb|----------------------------0-0-5-|---------------------------------|
Db|----------------------------------|---------------------------------|
Ab|-----9b------4b------5----5-------|-----9b------4b------5---5---5-5-|
Db|-7-7-----3-3-----0-0---0----------|-7-7-----3-3-----0-0---0---0-----|

Gb|-----------------------------------|---------------------------------|
Db|-----------------------------------|---------------------------------|
Ab|-----9b------4b------5---5p4---4---|-----9b------4b------5---5---5---|
Db|-7-7-----3-3-----0-0---0-----5---5-|-7-7-----3-3-----0-0---0---0---0-|


POST CHORUS

Gb|-----------------------------|---------------------------------|
Db|-------------------0--0--0-0-|---------------------------------|
Ab|----------------------0--0-0-|---------------------------------|
Db|-3-3-3-3-3-3-3/10\----0--0-0-|-3-3-3-3-3-3-3/10\-0--0-0--0-0-0-|


SOLO

Gb|-----------------------------------|-----------------------------------|
Db|-----------------------------------|-----------------------------------|
Ab|-----9b------4b------5---5p4---4---|-----9b------4b------5---5---------|
Db|-7-7-----3-3-----0-0---0-----5---5-|-7-7-----3-3-----0-0---0---0-(3)/5-|


BREAK

Gb|-----------------------------------|-----------------------------------|
Db|-----------------------------------|-----------------------------------|
Ab|-----------------------5---5---5---|-----------------------5---5---5---|
Db|-7-7-7-7\-3-3-3-3/-0-0---0---0---0-|-7-7-7-7\-3-3-3-3/-0-0---0---0---0-|


VERSE

Gb|-----------------------------------|-----------------------------------|
Db|-----------------------------------|-----------------------------------|
Ab|-----------------------5---5---5---|-----------------------5---5---5---|
Db|-7-7-7-7\-3-3-3-3/-0-0---0---0---0-|-7-7-7-7\-3-3-3-3/-0-0---0---0---0-|

Gb|-----------------------------------|-------------------------------------|
Db|-----------------------------------|-------------------------------------|
Ab|-----------------------5---5---5---|-----------------------5-------------|
Db|-7-7-7-7\-3-3-3-3/-0-0---0---0---0-|-7-7-7-7\-3-3-3-3/-0-0---0---0-(3)/5-|

Gb|-----------------------------------|-----------------------------------|
Db|-----------------------------------|-----------------------------------|
Ab|-----------------------5---5---5---|-----------------------5---5---5---|
Db|-7-7-7-7\-3-3-3-3/-0-0---0---0---0-|-7-7-7-7\-3-3-3-3/-0-0---0---0---0-|

Gb|-----------------------------------|-----------------------------------|
Db|-----------------------------------|-----------------------------------|
Ab|-----------------------5---5---5---|-----------------------------------|
Db|-7-7-7-7\-3-3-3-3/-0-0---0---0---0-|-7-7-7-7\-3-3-3-3/-0-0-0-0-0-0-0-0-|


CHORUS

Gb|-----------------------------------|-------------------------------------|
Db|-----------------------------------|-------------------------------------|
Ab|-----9b------4b------5---5p4---4---|-----9b------4b------5---5---5-5p4---|
Db|-7-7-----3-3-----0-0---0-----5---5-|-7-7-----3-3-----0-0---0---0-------5-|

Gb|--------------------------------|---------------------------------|
Db|------------------------------5-|---------------------------------|
Ab|-----9b------4b------5----0-5---|-----9b------4b------5---5---5-5-|
Db|-7-7-----3-3-----0-0---0--------|-7-7-----3-3-----0-0---0---0-----|

Gb|-----------------------------------|----------------------------------|
Db|-----------------------------------|----------------------------------|
Ab|-----9b------4b------5---5p4---4---|-----9b------4b------5---5---5----|
Db|-7-7-----3-3-----0-0---0-----5---5-|-7-7-----3-3-----0-0---0---0---0--|


OUTRO

Gb|-------------------------------|-------------------------------|
Db|-------------------0--0--0-0---|-------------------0--0--0-0---|
Ab|-------------------0--0--0-0---|----------------------0--0-0---|
Db|-3-3-3-3-3-3-3/10\-0--0--0-0-0-|-3-3-3-3-3-3-3/10\----0--0-0-0-|

Gb|-------------------------------|-----------------------|
Db|-------------------0--0--0-0---|-----------------------|
Ab|-------------------0--0--0-0---|-----------------------|
Db|-3-3-3-3-3-3-3/10\-0--0--0-0-0-|-3-3-3-3-3-3-3/10\-(0)-|




( ) - Hold note
  / - Slide up
  \ - Slide down
  B - Bend

            
            
Suggest correction
Creating personal tab
Creating personal tab
You can edit any tab online and save it as your Personal.

You can edit, replace or remove any tab part or add personal notes – all changes will be seen only by you.

Personal tabs can be accessed anytime from any device, even offline.
Learn more »
Give kudos to tab author, rate the tab!
1 2 3 4 5
comments
print report bad tab
guest
You may want to rate the tab now too:
select rating
Wanna post a correction for this tab? Suggest correction