Oops, an error
Loading. Please wait.

Here She Comes Now Tab

version 1
version 1

Whole song

Interactive

59,225 views 141 this week
6 commentsread comments
1 2 3 4 5
x 39
add to favorites
launch autoscroll
font size
0
reset
how to read this tab
guitar tuner
×
Best way to learn
"Here She Comes Now"
Autoscroll
slow
fast
+/-
esc
set tempo
stop
[Intro]

e|------------------------------------------------|x3 
B|-----7------7-------------12----------10--------|   
G|---7---7--7---7--7----11-----11-----9----9------|   
D|--0-----------------0------------0--------------|   
A|------------------------------------------------|   
E|------------------------------------------------|   


[Verse]

e|----------------------|x5
B|----------------------|
G|----7-7-77----7-7-77--|
D|---0---------0--------|
A|----------------------|
E|----------------------|


[Interlude]

e|------------------------------------------------|x3 
B|-----7------7-------------12----------10--------|   
G|---7---7--7---7--7----11-----11-----9----9------|   
D|--0-----------------0------------0--------------|   
A|------------------------------------------------|   
E|------------------------------------------------| 


[Chorus]
 
e|---0-0-0-0-0-0-0---3-3-3-3-3-3---|x3 e|-----------------------|
B|---3-3-3-3-3-3-3---0-0-0-0-0-0---|   B|-----------------------|
G|---2-2-2-2-2-2-2---0-0-0-0-0-0---|   G|---7-7-7-7-7-7-7-7-7-7-|
D|---0-0-0-0-0-0-0---0-0-0-0-0-0---|   D|---8-8-8-8-8-8-8-8-8-8-|
A|---0-0-0-0-0-0-0---2-2-2-2-2-2---|   A|---8-8-8-8-8-8-8-8-8-8-| 
E|-------------------3-3-3-3-3-3---|   E|---6-6-6-6-6-6-6-6-6-6-|


[Interlude]

e|------------------------------------------------|x3 
B|-----7------7-------------12----------10--------|   
G|---7---7--7---7--7----11-----11-----9----9------|   
D|--0-----------------0------------0--------------|   
A|------------------------------------------------|   
E|------------------------------------------------|   


[Verse]

e|----------------------|x5
B|----------------------|
G|----7-7-77----7-7-77--|
D|---0---------0--------|
A|----------------------|
E|----------------------|


[Chorus]
 
e|---0-0-0-0-0-0-0---3-3-3-3-3-3---|x3 e|-----------------------|
B|---3-3-3-3-3-3-3---0-0-0-0-0-0---|   B|-----------------------|
G|---2-2-2-2-2-2-2---0-0-0-0-0-0---|   G|---7-7-7-7-7-7-7-7-7-7-|
D|---0-0-0-0-0-0-0---0-0-0-0-0-0---|   D|---8-8-8-8-8-8-8-8-8-8-|
A|---0-0-0-0-0-0-0---2-2-2-2-2-2---|   A|---8-8-8-8-8-8-8-8-8-8-| 
E|-------------------3-3-3-3-3-3---|   E|---6-6-6-6-6-6-6-6-6-6-|
Suggest correction
comments
print report bad tab
6 comments total. Showing first comments. show 1 bad comment
-2 reply
vmhsdude2K5 10 Jan 23, 2004 07:00 PM

Dude we goto the same school, Go Patriots!!!

+2 reply
Herbalic0us 10 Jan 02, 2007 09:50 AM

i think this some is written in DROP D TUNING or a full step down
test it b4 you hate on it...

guest
You may want to rate the tab now too:
select rating
Wanna post a correction for this tab? Suggest correction