Oops, an error
Loading. Please wait.

If You Must Tab

version 2
version 2

Whole song

Interactive

6,899 views 9 this week
7 commentsread comments
1 2 3 4 5
x 12
add to favorites
launch autoscroll
font size
0
reset
how to read this tab
guitar tuner
backing track
0:00
0:00
Autoscroll
slow
fast
+/-
esc
set tempo
stop
If you must
by Nirvana

This is on one of the Outcesticide Cd's. can't remember which one though.
If anyone else can be bothered to look, please post it on the comments page.
Intro is just drums, then bass comes in. The guitar comes in on the verse
which goes like this:

e|--------------------|
b|--------------------|
g|--------------------|
d|--------------------|
a|--0--1--2--3--2--1--|
e|--------------------|

Chorus:

e|--------------------------------|
b|--------------------------------|
g|--------------------------------|
d|--7--7--7--6--6--7--7--7--8--8--|
a|--7--7--7--6--6--7--7--7--8--8--|
e|--5--5--5--4--4--5--5--5--6--6--|

After the chorus just play:

e|-----|.|
b|-----|.| repeat bars.
g|--4--|.|
d|--4--|.|
a|--2--|.|
e|-----|.|
  P.M.

Any questions/comments email to the_legend_kurt@hotmail.com
Suggest correction
comments
print report bad tab
7 comments total. Showing first comments.
0 reply
Giao 10 Mar 22, 2006 08:21 PM

is in the outcesticide(in memory of kurt cobain) CD

0 reply
kurtdcobain9 10 Mar 26, 2006 08:33 AM

wrong intro very very wrong

+1 reply
DORSZ666 10 May 04, 2007 06:49 AM

Your intro is so weak...
|----------------|
|-------------2--|
|----3------2----|
|--3---3--2------|
|----------------|
|----------------|
That's it! :)

guest
You may want to rate the tab now too:
select rating
Wanna post a correction for this tab? Suggest correction