Oops, an error
Loading. Please wait.
We have an official In Bloom tab made by UG professional guitarists. Check out the tab »
×

In Bloom bass

by Nirvana
5,923 views 6 this week
3 commentsread comments
1 2 3 4 5
2 more votes to show rating
add to favorites
×
Save as Personal and add changes to this tab that will be seen only by you. Learn more ›
×
You can save this tab as Personal to edit and correct it or add notes. All changes will be seen only by you. Learn more »
launch autoscroll
font size
0
reset
guitar tuner
backing track
0:00
0:00
edit
Autoscroll
slow
fast
+/-
esc
set tempo
stop
Author
NIRVANA
IN BLOOM BASS TAB
STANDARD TUNING:EADG

/ = slide up
\ = slide down
~ = vibrato
* = let ring
h = hammer on
p = pull off
b = bend the note
. = short note.

In Bloom
INTRO
|--------------------------------|
|--------------------------------|
|-1--111-------------------------|
|-------3--3333-11-1--111-4--444-|

|----------------------------|
|----------------------------|
|-1--111---------------------|
|-------3--3333-11-1--111-4.-|

VERSE 6x
|--------------------------------------------------------|
|---------------------------2-2-2-2-2--2-----------------|
|-1-1-1-1-1--1---------------------------2-2-2-2-0-0-0-0-|
|--------------2-2-2-2-2--2------------------------------|

CHORUS 2x
|---------------------------------------------------------|
|---------------------------------------------------------|
|-1-1-111-----------1-1-111------------1-1-111------------|
|--------3--3333-33--------3--3333--33--------3--3333--33-|

|--------------------------------------------------------------------------|
|----------------------------------------------1--1-111----------1--1-111--|
|-1-1-111-----------1-1-111------------3--3-33-----------3--3-33-----------|
|--------3--3333-33--------3--3333-33--------------------------------------|

BRIDGE
|--------------------------------|
|--------------------------------|
|-1--111-------------------------|
|-------3--3333-11-1--111-4--444-|

|--------------------------------|
|--------------------------------|
|-1--111-------------------------|
|-------3--3333-11-1--111-4--444-|

VERSE 4x
|--------------------------------------------------------|
|---------------------------2-2-2-2-2--2-----------------|
|-1-1-1-1-1--1---------------------------2-2-2-2-0-0-0-0-|
|--------------2-2-2-2-2--2------------------------------|

CHORUS 2x
|---------------------------------------------------------|
|---------------------------------------------------------|
|-1-1-111-----------1-1-111------------1-1-111------------|
|--------3--3333-33--------3--3333--33--------3--3333--33-|

|-------------------------------------------------------------------------|
|----------------------------------------------1--1-111----------1--1-111-|
|-1-1-111-----------1-1-111------------3--3-33-----------3--3-33----------|
|--------3--3333-33--------3--3333-33-------------------------------------|

BRIDGE
|--------------------------------|
|--------------------------------|
|-1--111-------------------------|
|-------3--3333-11-1--111-4--444-|

|--------------------------------|
|--------------------------------|
|-1--111-------------------------|
|-------3--3333-11-1--111-4--444-|

SOLO 4x
|--------------------------------------------------------|
|---------------------------2-2-2-2-2--2-----------------|
|-1-1-1-1-1--1---------------------------2-2-2-2-0-0-0-0-|
|--------------2-2-2-2-2--2------------------------------|

CHORUS 2x
|---------------------------------------------------------|
|---------------------------------------------------------|
|-1-1-111-----------1-1-111------------1-1-111------------|
|--------3--3333-33--------3--3333--33--------3--3333--33-|

|-------------------------------------|------------------------------------|
|-------------------------------------|---------1--1-111----------1--1-111-|
|-1-1-111-----------1-1-111-----------|-3--3-33-----------3--3-33----------|
|--------3--3333-33--------3--3333-33-|------------------------------------|

|------------------------------------|
|---------1--1-111----------1--1-111-|
|-3--3-33-----------3--3-33----------|
|------------------------------------|

OUTRO
|--------------------------------|
|--------------------------------|
|-1--111-------------------------|
|-------3--3333-11-1--111-4--444-|

|--------------------------------|
|--------------------------------|
|-1--111-------------------------|
|-------3--3333-11-1--111-4--444-|


Thats it i think thats right, there may be a few mistakes. in the chorus. but it should 
ok. Listen to the CD and you should be to find out how it goes. Thank you very much, 
you enjoy playing this song.
NIRVANA IS AWESOME-

Any questions e-mail me at www.peaceoutmahdi@yahoo.com

            
            
Suggest correction
Creating personal tab
Creating personal tab
You can edit any tab online and save it as your Personal.

You can edit, replace or remove any tab part or add personal notes – all changes will be seen only by you.

Personal tabs can be accessed anytime from any device, even offline.
Learn more »
Give kudos to tab author, rate the tab!
1 2 3 4 5
There is a new version of this tab from 1 day ago which you may like more. Go check it out:
comments
print report bad tab
3 comments total.
0 reply
B.C.RichRulz 331 Aug 12, 2009 09:58 PM

its ok but there are more notes to b played in the chorus and intro the intro should look like this

0 reply
B.C.RichRulz 331 Aug 12, 2009 10:12 PM

G|-------------------------------------|
D|-------------------------------------|
A|--------------4---------------3------|
E|---6/-12-\4-5---5-4-1-1--3 3 4--4----| x4

somethin like that

0 reply
ChrisBassify 73 Apr 21, 2012 03:43 PM

Not a very good tab :( mine will be posted soon

guest
You may want to rate the tab now too:
select rating
Wanna post a correction for this tab? Suggest correction