Oops, an error
Loading. Please wait.

In Utero Bass Tab

5,738 views 3 this week
no commentswrite comment
1 2 3 4 5
not so good
x 5
add to favorites
launch autoscroll
font size
0
reset
guitar tuner
Tab Pro tools
  • play this tab
  • loop segment
  • change instrument
  • show fretboard
  • metronome
Autoscroll
slow
fast
+/-
esc
set tempo
stop
                               NIRVANA
                         *****In Utero*****

----------------------------------------------------------------------------
Symbols used:
\   Slide Up To
/   Slide Down To
( ) Bend
*   Mute
----------------------------------------------------------------------------



SERVE THE SERVANTS
Intro:
G:----13---
D:----12---
A:---------
E:---------
Verse:
G:----------8-----8-------9-9----9---------11------9----
D:-------7------7---7---9------9---9--------------------    
A:-----9--------------7-----------------9-------7-------
E:--7--------------------------------------------------- 
Chorus:
G:-------------------------------
D:-------------------------------
A:-0--0-0--0-0-0-4--4-4--4-4-4-6-
E:------------------------------- (x3)
               'Serve the servants, oh no...'
G:-----------------------------
D:-----------------------------
A:-----------------------------
E:-2--2-2--2-2-2-3--3-3--3-3-3- 
                    'The Legendary Divorce...'
G:-----||
D:-----||
A:--13-||
E:--12-|| 
     'Bore...'



SCENTLESS APPRENTICE
Main riff:
G:-----------------------------
D:-----------------------------
A:------0----0---------0----0--
E:-2--2---2----2-2-2-2---2-----
Chorus:
G:--------------------------------------------------------------
D:--------------------------------------------------------------
A:-3--3-3-3\5--5-5-5\7--7-7-7\8--8-8-8\10--10-10-10-12-12\15/12\
E:--------------------------------------------------------------




HEART-SHAPED BOX
G:---------------------------------------
D:---------------------7-----7---7-------
A:-----(7)-----(3)-5-5---5-5---5---------
E:-5-5-----1-1---------------------------




RAPE ME
(No bass until chorus):
Chorus:
G:----------------------------
D:----------------------------
A:----------------------------
E:-5-5****8-8-8--0-0****3-3-3-
Interlude:
G:---------------------------|    |------------------------------------------
D:---------------------------|    |------------------------------------------
A:-3-3-3-3-3-----------------|    |------------------------------------------
E:-----------4(hold)-3-2-1-0-| x4 |-0-0--0-0-0-2-2--2-2-2--11---11---11---11-
(Play Chorus for ending).




FRANCIS FARMER WILL HAVE HER REVENGE ON SEATTLE
Intro And Verse:
G:--------------------------------------------------
D:--------------------------------------------------
A:--------------------------------------------------
E:-4-4-4-4-4-4-4-4/0-0-0-0-3-3-3-3-0-0-0-0-3-3-3-3--
                                                 (x2)
G:--------------------------
D:--------------------------
A:-2-2--2-2-2--2-2--2-2-2-2-
E:--------------------------

Chorus:
G:-----------------------------------------------
D:-----------------------------------------------
A:-4-4--4-4-4--7-7-7-5-5--2-2--2-2-2--2-2--2-2-2-
E:-----------------------------------------------
End Of Chorus:
G:-------------------------------------------------------------
D:-------------------------------------------------------------
A:-0--0-0--0-0-0--2--2-2--2-2-2-0--0-0--0-0-0------------------
E:---------------------------------------------3--3-3--3-3-3-3-




DUMB
Verse:
G:--------------------------------
D:--------------------------------
A:------------------------3-3-3-0-
E:-0--0-0-5-5-5-0-3-3-3-0---------
Chorus:
G:------------------------------
D:------------------------------
A:------------------------------
E:-0--0-0--0-0-0-3--3-3--3-3-3--
Interlude near end:
G:-----------------------------
D:-----------------------------
A:-2--2-2--2-2-2-3--3-3--3-3-3-
E:-----------------------------




VERY APE
Verse:
G:-----------------
D:-----------------
A:-----------------
E:-3\5-5-5-3\6-6-6-
Chorus:
G:-----------------
D:-----------------       
A:-----5-5-5-9-9-9-
E:-5-5-------------   

MILK IT
Verse And Chorus:
G:-----------------------------------------------------------
D:-----------------------------------------------------------
A:-------6-6-6-6------------------------------6-6-6-6--------
E:-5-5-5----------2-2-2-3-3-3-0-0-0-0-0-5-5-5---------2-2-3--
Bridge:
G:-----------------------------------------
D:-----------------------------------------
A:-------6-6-6-6---------------------------
E:-5-5-5---------2-2-2--3-3-3-3-3-0-0-0-0--




PENNYROYAL TEA
(Tune down 1 step).
Verse:
G:-----------------------------------------------------------
D:-----------------------------------------------------------
A:-0--0-0--0-0-0--0--0-0--0-0-0------------------------------ 
E:------------------------------3--3-3--3-3-3--3--3-3--3-3-3-
Chorus:
G:-------------------------------------------------------------
D:-------------------------------------------------------------
A:-3--3-3--3-3-3-5--5-5--5-5-5-1--1-1--1-1-1--1-0-1-0-1-0-1-0--
E:-------------------------------------------------------------




RADIO FRIENDLY UNIT SHIFTER
Intro And Verse (Main Riff)
G:---------------------------
D:---------------------------
A:-----3----------2----------
E:-5-5---5-0--3-3---3-0-2-0--
Bridge:
G:-------------------------------------------------
D:-------------------------------------------------
A:-3--3-3-3-3\7--7-7-7-7-0--0-0-0-0-0--------------
E:------------------------------------4---4-3-3-0--




TOURETTE'S
G:---------------------------------
D:---------------------------------
A:---------------------------------
E:-1-1-1-1-5-5-5-5-6-6-6-6-2-2-2-2-
Chorus:
G:----------
D:----------
A:----------
E:-1--------




ALL APOLOGIES
Verse:
G:-------------------
D:-------------------
A:-------------------
E:-10-10-10-10-10-10-
                 (over and over!)
(Guitar)
Intro And Verse:
G:--------------------------------------------------
D:------------------------------------12-12-10-9----
A:-------9-----12-12-10-9--------9------------------
E:-10-10---10-------------10-10----10---------------

G:--------------------------------------------------
D:------------------------------------16-16-14-12---
A:-------9----12-12-10-9----------9-----------------
E:-10-10---10------------10-10-10-------------------
Chorus:
G:------------------------
D:------------------------
A:------------------------
E:-3-3--3-3-3--3-3--3-3-3- Repeat...
                  'In the sun...'
G:-----
D:-----
A:-0---
E:-----
       'Married!'

BY MATTY
PLEASE rate this tab!
comments
print report bad tab
I want to post or [tab]
guest
You may want to rate the tab now too:
select rating
Please do not post tabs as comments. Select "correction" instead!