Oops, an error
Loading. Please wait.

In Utero Tab

version 1
version 1

Album

Whole song

18,687 views 6 this week
4 commentsread comments
1 2 3 4 5
x 3
add to favorites
launch autoscroll
font size
0
reset
how to read this tab
guitar tuner
Autoscroll
slow
fast
+/-
esc
set tempo
stop
Help us to improve Ultimate-Guitar.com Take our survey!
×
Author
Difficulty
intermediate
Serve The Servants

_____________________________________________________________________________

TUNING:

Tune down 1/2 step

INTRO
e------14---------0---9\-----------------------------------------------------|
b--14------14--x--14--9\-----------------------------------------------------|
g--13----------x--13--9\-----------------------------------------------------|
d--12----------x--12---------------------------------------------------------|
a--x--------------11---------------------------------------------------------|
e--0--------------0----------------------------------------------------------|

e-----------------------------------------------0--0-----------0--0----------|
b-----------------------------3-----------------0--0-----------0--0----------|
g--------2-----2-------------------------------------------------------------|
d-----1-----------0--2--2--2-----2--2-----4-----------4/5--------------2--0--|
a--2--------2-----------------------------4-----------4/5--2-----------2--0--|
e--------------------------------------0--2--2-------------0--0--------------|

e--------------------------------------------------0--0--0-------------------|
b--------------------------------3-----------------0--0--0-------------------|
g-----------2-----2----------------------------------------------------------|
d--------1-----------0--0--2--2-----2--2-----4--------------4/5--------------|
a--2--2--------2-----------------------------4--------------4/5--2-----------|
e-----------------------------------------0--2--2----------------0--0--0-----|

e--0--0----------------------------------------------------------------------|
b--0--0----------------------------------------------------------------------|
g----------------------------------------------------------------------------|
d--------2--0----------------------------------------------------------------|
a--------2--0----------------------------------------------------------------|
e----------------------------------------------------------------------------|

VERSE
e--------------------------------------------------0--0----------0--0--------|
b--------------------------------3-----------------0--0----------0--0--------|
g-----------2-----2----------------------------------------------------------|
d--------1-----------0--2--2--2-----2--2-----4------------4------------2--0--|
a--2--2--------2-----------------------------4------------4--2---------2--0--|
e-----------------------------------------0--2--2------------0--0------------|
play that 4 times.

CHORUS
e-----------------------------------------------0----------------------------|
b--------------------0--6--6--6--6--------------0-----0--6--6--6--6--6-------|
g--------------------0--6--6--6--6--------------------0--6--6--6--6--6-------|
d--7-----7--7--7--7--0--6--6--6--6--7--7--7--7-----7--0--6--6--6--6--6-------|
a--7--7--7--7--7--7-----4--4--4--4--7--7--7--------7-----4--4--4--4--4-------|
e--5--5--5--5--5--5--------4--4--4--5--5--5--------5--------4--4--4--4-------|

e--------------0--------------------------------------0----------------------|
b--------------0-----0--6--6--6--6--6--6--------------0--6--6--6--6--6--6----|
g--------------------0--6--6--6--6--6--6-----------------6--6--6--6--6--6----|
d--7--7--7--------7--0--6--6--6--6--6--6--7--7--7--------6--6--6--6--6--6----|
a--7--7--7--7-----7-----4--4--4--4--4--4--7--7--7--7-----4--4--4--4--4--4----|
e--5--5--5--------5--------4--4-----------5--5--5-----------------4--4--4----|

e----------------------------------------------------------------------------|
b-----------------------------------5--5--5--x--x--x--5--5--5----------------|
g-----------------------------------5--5--5--x--x--x--5--5--5----------------|
d--4--4--4--4--4--4--4--4--4--------5--5--5--x--x--x--5--5--5----------------|
a--4--4--4--4--4--4--4--4--4--------3--3--3--x--x--x--3--3--3----------------|
e--2--2--2--2--2--2--2--2--2--3--3-----------x--x--x-------------------------|


e-------------13-------------------------------------------------------------|
b--11----x/--------x/--------------------------------------------------------|
g--11----x/--------x/--------------------------------------------------------|
d--10----x/--------x/--------------------------------------------------------|
a--9-----x/------------------------------------------------------------------|
e----------------------------------------------------------------------------|

after second time chorus is played, before solo play,
e----------------------------------------------------------------------------|
b--12------------------------------------------------------------------------|
g--13-----16--16\-13\-9\-----------------------------------------------------|
d--12------------------------------------------------------------------------|
a----------------------------------------------------------------------------|
e----------------------------------------------------------------------------|

SOLO |------------------hold bend---------------------------------------------|
e------------------------------------------------------------------------0-0--|
b---)-----0-----0--------------------------------------------------------0-0--|
g--4---4-----4-----4-4-4-4-4-4-4-4-4-4-4-4-4-4-4-4-4-4-4-2-0-0-----------0-0--|
d------------------------------------------------------------0----------------|
a------------------------------------------------------------0---)------------|
e---------------------------------------------------------------3-3-3-0-------|

e----------------------------------------------------------------------------|
b----------------------------------------------------------------------------|
g-----------------)----------------------------------------------------------|
d--2--0--6/7--7--7--7-----------------------)--------------------------------|
a--------0-------7--7-----0--2--2--2/4--4--4--4--4--4\2--2--2--2--2----------|
e----------------------7---------------------------------------------0-------|

e-----------------------------------------------------------------------0-----|
b-----------------------------------------------------------------------0-----|
g---------)-------------------------------------------------------------------|
d-----)-14--14--14--14--14--14--14--14--14------------------------------------|
a--/10--16--16--16--16--16--16--16--16--16--16\-----------------)--)--)-------|
e------------------------------------------------5--5--5--5/7--7--7--7-----7\-|

e----------------------------------------------------------------------------|
b---------------0-----7/9-10-10-10-8-------------------------------0-0-0---0-|
g-------4-6-6/7---6-7------9--9--9-7\6-6-6/7-7-6-7-6-7-6-7-7\6-6\4-4-4-4\2-2-|
d---4-5----------------------------------------------------------------------|
a----------------------------------------------------------------------------|
e----------------------------------------------------------------------------|

e----------------------------------------------------------------------------|
b--0-0---0-------------------------------------------------------------------|
g--2-2-2-0-------------------------------------------------------------------|
d----------------------------------------------------------------------------|
a----------------------------------------------------------------------------|
e----------------------------------------------------------------------------|

END
e----------------------------------------------------------------------------|
b--5----------------12-------------------------------------------------------|
g--5----------------12--------------14--------------10-----------------------|
d--4----------------11--------------13--------------10-----------------------|
a----------------------------------------------------9-----------------------|
e----------------------------------------------------------------------------|


_____________________________________________________________________________

Scentless Apprentice
_____________________________________________________________________________

TUNING:
Drop D tuned down 1/2 step

INTRO/CHORUS
e-0--0--1--1--2-2-2-2-3-/----------------------------------------------------|
b-0--0--0--0--0-0-0-0-0------------------------------------------------------|
g-0--0--0--0--0-0-0-0-0------------------------------------------------------|
d----------------------------------------------------------------------------|
a----------------------------------------------------------------------------|
e----------------------------------------------------------------------------|
w/echo effect

MAIN RIFF
e----------------------------------------------------------------------------|
b----------------------------------------------------------------------------|
g----------------------------------------------------------------------------|
d-4--4--X-4--0-4-4-4-4-X-4--0------------------------------------------------|
a-4--4--X-4--0-4-4-4-4-X-4--0------------------------------------------------|
e-4--4--X-4--0-4-4-4-4-X-4--0------------------------------------------------|
w/echo effect OFF bend and pick troughout the bar

VERSE BEND
e----------------------------------------------------------------------------|
b----------------------------------------------------------------------------|
g-8gb9==8=8=8=8=8=8=8=8=8=8=8=8=8-0------------------------------------------|
d---------------------------------0------------------------------------------|
a---------------------------------0------------------------------------------|
e----------------------------------------------------------------------------|
w/echo effect

PRE-CHORUS
e----------------------------------------------------------------------------|
b----------------------------------------------------------------------------|
g----------------------------------------------------------------------------|
d----------------------------------------------------------------------------|
a-3-3-3-3-3--3-3-3/5-5-5-5--5-5---5/7-7-7-7--7-7-7/8-8-8-8--8-8--------------|
e----------------------------------------------------------------------------|
w/echo effect

e----------------------------------------------------------------------------|
b----------------------------------------------------------------------------|
g----------------------------------------------------------------------------|
d----------------------------------------------------------------------------|
a-8/10-10-10-10--10-10-10/12-12-12-12/15-15-15---15\12-12-12-12--12-12-------|
e----------------------------------------------------------------------------|

e----------------------------------------------------------------------------|
b-0-0-0-0-0-0-0-0-0----------------------------------------------------------|
g-0-0-0-0-0-0-0-0-0----------------------------------------------------------|
d-0-0-0-0-0-0-0-0-0----------------------------------------------------------|
a-0-0-0-0-0-0-0-0-0----------------------------------------------------------|
e----------------------------------------------------------------------------|

The solo is just improvised noise.
Do bends high up the neck on the low and high strings.
Use some kind of effect on it.


_____________________________________________________________________________

Heart Shaped Box
_____________________________________________________________________________

TUNING:

Drop D 1/2 step down


INTRO/VERSE
e----------------------------------------------------------------------------|
b----------------------------------------------------------------------------|
g-----2------------------------------2---------------------------------------|
d---2---2-----3----------0-------2-2---2-----3------/4-4---4----0------------|
a-0---------3---3----0-------0---0---------3---3-------------3-3-------------|
e---------3--------0---0---0---0---------3--------0------0-------------------|

LAST TIME BEFORE CHORUS
e----------------------------------------------------------------------------|
b----------------------------------------------------------------------------|
g-----2------------------------------2---------------------------------------|
d---2---2-----3----------0---------2---2-----3------4-4-4-4-4---0------------|
a-0---------3---3----0-------0---0---------3---3--------------3-0------------|
e---------3--------0---0---0---0---------3--------0--------------------------|
						w/dist.
CHORUS (3 times)
e----------------------------------------------------------------------------|
b----------------------------------------------------------------------------|
g-2-2-4b5-----4b5------------*-4b5-------------------------------------------|
d-2-2-----3-3--------4-4-4-4-------------------------------------------------|
a-0-0-----3-3----------------3-----------------------------------------------|
e---------3-3------0---------------------------------------------------------|
		let ring

LAST PART OF CHORUS
e----------------------------------------------------------------------------|
b----------------------------------------------------------------------------|
g--------------------------4b5=5=5r4----------------------------------0------|
d-3-3-3-3-3-3-3-3---0-----------------3-3-3-3-3-3-3-3-----4-4-4-4-----0------|
a-3-3-3-3-3-3-3-3---0-----------------3-3-3-3-3-3-3-3-------------3-3-0------|
e-3-3-3-3-3-3-3-3---0-----------------3-3-3-3-3-3-3-3---0--------------------|

SOLO
e----------------------------------------------------------------------------|
b------8b10r8\6-----6b8r6\5--------5b6-r5-3-1-0------------------------------|
g----------------------------------------------------------------------------|
d-7-7-----------5-5------------3-3-------------------------------------------|
a----------------------------------------------------------------------------|
e----------------------------------------------------------------------------|
w/chorus

e----------------------------------------------------------------------------|
b----------------------------------------------------------------------------|
g-------------------------2--------------------------------------------------|
d-2-----------------------2--------------------------------------------------|
a-0-----------------------0--------------------------------------------------|
e----------------------------------------------------------------------------|
	                dist. off          (chorus off for 3rd verse)

ENDING OF LAST CHORUS
e----------------------------------------------------------------------------|
b----------------------------------------------------------------------------|
g--------------------------4b5=5=5r4-----------------------------------------|
d-3-3-3-3-3-3-3-3---0--------------------------------------------------------|
a-3-3-3-3-3-3-3-3---0--------------------------------------------------------|
e-3-3-3-3-3-3-3-3---0--------------------------------------------------------|

e----------------------------------------------------------------------------|
b----------------------------------------------------------------------------|
g----------------------------------------------------------------------------|
d-3-3-3-3-3-3-3-3-----4-4-4-4------------------------------------------------|
a-3-3-3-3-3-3-3-3-------------3-3-3------------------------------------------|
e-3-3-3-3-3-3-3-3---0--------------------------------------------------------|

_____________________________________________________________________________

Rape Me
_____________________________________________________________________________

TUNING:

Standard dropped down 1/2 step

INTRO/CHORUS/2nd and 3rd VERSES
e-----------------------------0---0--0---------------------------------------|
b-----------------------------0---0--0---3-3---3-3---------------------------|
g--2---2--2---5-5---5-5-0-0--------------0-0---0-0-0-0-----------------------|
d--2---2--2-0-5-5---5-5-0-0---2---2--2-0-0-0---0-0-0-0-----------------------|
a--0---0--0-0-3-3---3-3-0-0---2---2--2-0-----------0-0-----------------------|
e-----------0-----------0-0---0---0--0-0-3-3---3-3-0-0-----------------------|

1ST VERSE
e----------------------------------------------------------------------------|
b----------------------------------------------------------------------------|
g----2-----5-----------------------------------------------------------------|
d----2---5-5-0-----2------5--------------------------------------------------|
a-0---0-3----0-----2----5-5-0------------------------------------------------|
e----------------0--0-3-----0------------------------------------------------|

3 times, then...
e----------------------------------------------------------------------------|
b---------------------3-3-3-3------------------------------------------------|
g----2-----5----------0-0-0-0------------------------------------------------|
d----2---5-5-0-----2--0-0-0-0------------------------------------------------|
a-0---0-3----0-----2---------------------------------------------------------|
e----------------0--0-3-3-3-3------------------------------------------------|
		    w/dist.

BRIDGE
e----------------------------------------------------------------------------|
b----------------------------------------------------------------------------|
g-6-6-6-6-6-6-6-6------------------------------------------------------------|
d-6-6-6-6-6-6-6-6---7-7-7-7-5-4-3--------------------------------------------|
a-4-4-4-4-4-4-4-4---7-7-7-7-5-4-3--------------------------------------------|
e-------------------5-5-5-5-3-2-1-0------------------------------------------|

4 times, then...
e----------------------------------------0-----------------------------------|
b------------------------------------------0---------------------------------|
g-----------------------------------9----------------------------------------|
d-3--3-3---3-3-3---3/5--5-5--5-5-0--9----------------------------------------|
a-3--3-3---3-3-3---3/5--5-5--5-5-0--7----------------------------------------|
e-1--1-1---1-1-1---1/3--3-3--3-3-0--0----------------------------------------|

OUTRO CHORUS RIFF (second guitar)
e----------------------------------------------------------------------------|
b----------------------------------------------------------------------------|
g-2---2-2-5-5-5-7---9---9----------------------------------------------------|
d-2---2-2-5-5-5-7---9---9----------------------------------------------------|
a-0---0-0-3-3-3-5---7---7-0---5-3-2------------------------------------------|
e-------------------0---0-0-3------------------------------------------------|


_____________________________________________________________________________

Frances Farmer Will Have Her Revenge On Seattle
_____________________________________________________________________________

TUNING:

Standard dropped down 1/2 step

INTRO/VERSE (on intro play the 3 first bars twice)
e----------------------------------------------------------------------------|
b----------------------------------------------------------------------------|
g----------------------------------------------------------------------------|
d----------------------------------------------------------------------------|
a-6-6-6-6-6-6-6-6---2-2-2-2/5-5-5-4---2-2-2-2/5-5-5--------------------------|
e-4-4-4-4-4-4-4-4---0-0-0-0/3-3-3-2---0-0-0-0/3-3-3-0------------------------|
  PM...................................................
  clean

e----------------------------------------------------------------------------|
b----------------------------------------------------------------------------|
g-4--4--4-4-4-4---4-4-4-4-4--------------------------------------------------|
d-4--4--4-4-4-4---4-4-4-4-4--------------------------------------------------|
a-2--2--2-2-2-2---2-2-2-2-2--------------------------------------------------|
e---------------------------2-2-3--------------------------------------------|
 w/dist

SECOND GUITAR
e----------------------------------------------------------------------------|
b----------------------------------------------------------------------------|
g----------------------------------------------------------------------------|
d----------------------------------------------------------------------------|
a---------------6\--2-------------4\-2---------------------------------------|
e----------------------------------------------------------------------------|
  clean

SECOND GUITAR
e----------------------------------------------------------------------------|
b----------------------------------------------------------------------------|
g--4--4--4-4-4-4---4-4-4-4-4-------------------------------------------------|
d--4--4--4-4-4-4---4-4-4-4-4-------------------------------------------------|
a--2--2--2-2-2-2---2-2-2-2-2-------------------------------------------------|
e----------------------------2-2-3-------------------------------------------|
 w/dist

LAST TIME BEFORE CHORUS
e----------------------------------------------------------------------------|
b----------------------------------------------------------------------------|
g-4--4--4-4-4-4---4-4-4-4-4-4-4-5--------------------------------------------|
d-4--4--4-4-4-4---4-4-4-4-4-4-4-5--------------------------------------------|
a-2--2--2-2-2-2---2-2-2-2-2-2-2-3--------------------------------------------|
e----------------------------------------------------------------------------|

CHORUS
e----------------------------------------------------------------------------|
b----------------------------------------------------------------------------|
g-6--6--6-6-6-6---9-9-9-9-7-7-7-7---4---4---4-4-4-4---4-4-4-4-4-4-4-5--------|
d-6--6--6-6-6-6---9-9-9-9-7-7-7-7---4---4---4-4-4-4---4-4-4-4-4-4-4-5--------|
a-4--4--4-4-4-4---7-7-7-7-5-5-5-5---2---2---2-2-2-2---2-2-2-2-2-2-2-3--------|
e-4--4--4-4-4-4---7-7-7-7-5-5-5-5---2---2---2-2-2-2---2-2-2-2-2-2-2-3--------|

e----------------------------------------------------------------------------|
b-----------------------------------------4--------------2-------------------|
g-6--6--6-6-6-6---9-9-9-9-7-7-7-7---4---------4------2---------2-------------|
d-6--6--6-6-6-6---9-9-9-9-7-7-7-7---4-------------4--2-----------2-----------|
a-4--4--4-4-4-4---7-7-7-7-5-5-5-5---2----------------0-----------------------|
e-4--4--4-4-4-4---7-7-7-7-5-5-5-5--------------------------------------------|
				 let ring

e------------------------------------3-3-3-3-3-3-3-3-------------------------|
b-------4--------------2-------------0-0-0-0-0-0-0-0-------------------------|
g-4---------4------2---------2-------0-0-0-0-0-0-0-0-------------------------|
d-4-------------4--2-------------2---0-0-0-0-0-0-0-0--4-4-4-4-4-4-4-5--------|
a-2----------------0----------------------------------4-4-4-4-4-4-4-5--------|
e------------------------------------3-3-3-3-3-3-3-3--2-2-2-2-2-2-2-3--------|
						     PM.............
THE F#5 ENDING OF 2ND CHORUS
e----------------------------------------------------------------------------|
b----------------------------------------------------------------------------|
g----------------------------------------------------------------------------|
d-4-4-4-4--------------------------------------------------------------------|
a-4-4-4-4--------------------------------------------------------------------|
e-2-2-2-2--------------------------------------------------------------------|
PM.....

INTERLUDE
e----------------------------------------------------------------------------|
b----------------------------------------------------------------------------|
g------------------9-9---9---------------------------------------------------|
d-6--6--6--6-2---2/9-9---9-0-------------------------------------------------|
a-6--6--6--6-2---2/7-7---7-0-------------------------------------------------|
e-4--4--4--4-0---0---------0-------------------------------------------------|

3 times, then...
e----------------------------------------------------------------------------|
b----------------------------------------------------------------------------|
g-6--6--6-6-6-6------6--6--6--6----------------------------------------------|
d-6--6--6-6-6-6--------------------------------------------------------------|
a-4--4--4-4-4-4-----4b5=5==5==5r4--2--0--------------------------------------|
e----------------------------------------------------------------------------|

Play the entire INTERLUDE RIFF 3 times and then:
e------------------------------------3-3-3-3-3-3-3-3-------------------------|
b-------4--------------2-------------0-0-0-0-0-0-0-0-------------------------|
g-4---------4------2---------2-------0-0-0-0-0-0-0-0-------------------------|
d-4-------------4--2-------------2---0-0-0-0-0-0-0-0--4-4-4-4-4-4-4-5--------|
a-2----------------0----------------------------------4-4-4-4-4-4-4-5--------|
e------------------------------------3-3-3-3-3-3-3-3--2-2-2-2-2-2-2-3--------|
 						      PM.............


_____________________________________________________________________________

Dumb
_____________________________________________________________________________

TUNING:

Standard tuning dropped down 1/2 step

VERSE
e----------------------------------------------------------------------------|
b----------------------------------------------------------------------------|
g----2------2--------5-------5-----------------------------------------------|
d----2----2-2--------5-----5-5-0---------------------------------------------|
a-2--2-2-0--------5--5---3-----0---------------------------------------------|
e-0----0------0---3----0-----------------------------------------------------|
  PM   PM..   PM...    PM...

CHORUS
e-0-----0---0-0----3------3---3-3--------------------------------------------|
b-0-----0---0-0----0------0---0-0-0------------------------------------------|
g---------------0--0------0---0-0-0------------------------------------------|
d-2-----2---2-2-0--0------0---0-0-0------------------------------------------|
a-2---2-2---2-2-0------------------------------------------------------------|
e-0---0-0---0-0-0---3---3-3---3-3-0------------------------------------------|
  let ring

play 3 times then
e-0-----0---0-0----3------3--------------------------------------------------|
b-0-----0---0-0----0------0--------------------------------------------------|
g---------------0--0------0--------------------------------------------------|
d-2-----2---2-2-0--0------0--------------------------------------------------|
a-2---2-2---2-2-0------------------------------------------------------------|
e-0---0-0---0-0-0---3---3-3---3/7-7-\----------------------------------------|
  let ring

BRIDGE
e----------------------------------------------------------------------------|
b-4--4-4--4-4-----5--5-5--5-5------------------------------------------------|
g-4--4-4--4-4-0---5--5-5--5-5-0----------------------------------------------|
d-4--4-4--4-4-0---5--5-5--5-5-0----------------------------------------------|
a-2--2-2--2-2-0---3--3-3--3-3-0----------------------------------------------|
e-------------0---------------0----------------------------------------------|

LAST PART OF BRIDGE
e----------------------------------------------------------------------------|
b-4--4-4--4-4-----5----------------------------------------------------------|
g-4--4-4--4-4-0---5----------------------------------------------------------|
d-4--4-4--4-4-0---5----------------------------------------------------------|
a-2--2-2--2-2-0---3----------------------------------------------------------|
e-------------0--------------------------------------------------------------|

OUTRO
e----------------------------------------------------------------------------|
b----------------------------------------------------------------------------|
g--------2--2-0----------5-5-5-----------------------------------------------|
d-2--2-0-2--2-0---5--5-5-5-5-5-0---------------------------------------------|
a-2--2-0-0--0-0---5--5-5-3-3-3-0---------------------------------------------|
e-0--0-0------0---3--3-3-------0---------------------------------------------|

_____________________________________________________________________________

Very Ape
_____________________________________________________________________________

TUNING:

Standard dropped down 1/2step

Guitar 1
MAIN RIFF
e----------------------------------------------------------------------------|
b----------------------------------------------------------------------------|
g----------------------------------------------------------------------------|
d-5/----7-7-X-5/8-8-X-5/-----------------------------------------------------|
a-5/----7-7-X-5/8-8-X-5/-----------------------------------------------------|
e-3/----5-5-X-3/6-6-X-3/-----------------------------------------------------|

VERSE ENDING:
Verse includes first 5 times of main riff
last time of main riff is a bit different
e----------------------------------------------------------------------------|
b----------------------------------------------------------------------------|
g----------------------------------------------------------------------------|
d---7-7-X-5/8-8-8-0----------------------------------------------------------|
a---7-7-X-5/8-8-8-0----------------------------------------------------------|
e---5-5-X-3/6-6-6-0----------------------------------------------------------|

e----------------------------------------------------------------------------|
b----------------------------------------------------------------------------|
g----------------------------------------------------------------------------|
d-5--5-5--5-5-5--3-3-3-3-8-7-6-5---------------------------------------------|
a-5--5-5--5-5-5--3-3-3-3-8-7-6-5---------------------------------------------|
e-3--3-3--3-3-3--1-1-1-1-6-5-4-3---------------------------------------------|


VARIATION OF MAIN RIFF BEFORE CHORUS
e----------------------------------------------------------------------------|
b----------------------------------------------------------------------------|
g----------------------------------------------------------------------------|
d--7---7-5/8---8-5/----------------------------------------------------------|
a--7---7-5/8---8-5/----------------------------------------------------------|
e--5---5-3/6---6-3/----------------------------------------------------------|

CHORUS
e----------------------------------------------------------------------------|
b----------------------------------------------------------------------------|
g-----5-8--8---/12--12-------------------------------------------------------|
d-7---5-8--8---/12--12--5-5-5-5----------------------------------------------|
a-7---3-6--6---/10--10--5-5-5-5----------------------------------------------|
e-5---------------------3-3-3-3----------------------------------------------|


Guitar 2
MAIN RIFF
e----------------------------------------------------------------------------|
b----------------------------------------------------------------------------|
g-14---12-14/15---12---------------------------------------------------------|
d----------------------------------------------------------------------------|
a----------------------------------------------------------------------------|
e----------------------------------------------------------------------------|

MAIN RIFF VARIATION
e-15---13-15/16---13---------------------------------------------------------|
b----------------------------------------------------------------------------|
g----------------------------------------------------------------------------|
d----------------------------------------------------------------------------|
a----------------------------------------------------------------------------|
e----------------------------------------------------------------------------|

CHORUS
e----------------------------------------------------------------------------|
b------13-16--16---16h/20-20-\-----------------------------------------------|
g-14--------------------------12-12-12-12------------------------------------|
d----------------------------------------------------------------------------|
a----------------------------------------------------------------------------|
e----------------------------------------------------------------------------|


_____________________________________________________________________________

Milk It
_____________________________________________________________________________

TUNING:

Standard dropped down 1/2 step

The song starts with two guitars playing improvised licks on the high strings
and quite high on the neck. No need for tabbing...but remember that even that
improvised lick has a certain rhythm. Listen to it carefully. The same
applies for the "guitar solo".

CHORUS/INTRO
e----------------------------------------------------------------------------|
b----------------------------------------------------------------------------|
g-------9-9--------------------------------9-9-------------------------------|
d-8-8-8-9-9-5-5-----5-5-5-6-6---2----8-8-8-9-9-5-5-----5---------------------|
a-8-8-8-7-7-5-5-----5-5-5-6-6---2-0--8-8-8-7-7-5-5-----5---------------------|
e-6-6-6-----3-3-0---3-3-3-4-4-0-0-0--6-6-6-----3-3-0---3---------------------|

e----------------------------------------------------------------------------|
b----------------------------------------------------------------------------|
g-------9-9------------------------------------------------------------------|
d-8-8-8-9-9-5-5--------------------------------------------------------------|
a-8-8-8-7-7-5-5--------------------------------------------------------------|
e-6-6-6-----3-3-0---3--3-4-4b-0-0-0------------------------------------------|

CHORUS("Look on the bright side...")
e----------------------------------------------------------------------------|
b----------------------------------------------------------------------------|
g-------9-9------------------------------------------------------------------|
d-8-8-8-9-9-5-5-----5-5-5-6-6---2--------------------------------------------|
a-8-8-8-7-7-5-5-----5-5-5-6-6---2-0------------------------------------------|
e-6-6-6-----3-3-0---3-3-3-4-4-0-0-0------------------------------------------|

PRE-VERSE RIFF
e-------------------------------3--------------------------------------------|
b----------------------------------------------------------------------------|
g----------------------------3-----------------------------------------------|
d----------------------------------------------------------------------------|
a----------------------------------------------------------------------------|
e-6-6-6-6-6-6-6-6---0-0-0-0--------------------------------------------------|

VERSE
e----------------------------------------------------------------------------|
b----------------------------------------------------------------------------|
g----------------------------------------------------------------------------|
d----------------------------------------------------------------------------|
a----------------------------------------------------------------------------|
e-6-6-6-6-6-6-6-6---0-0-0-0-0-0-0-0------------------------------------------|

_____________________________________________________________________________

Pennyroyal Tea
_____________________________________________________________________________

TUNING:

Standard dropped down 1/2 step

VERSE
e--0----0----0-----0----0----0----------3----3----------3--------------------|
b--1--1-1--1-1-1---1--1-1--1-1-----0--0-0--0-0-0---0--0-0--------------------|
g--2--2-2--2-2-2---2--2-2--2-2-0---0--0-0--0-0-0---0--0-0--------------------|
d--2--2-2--2-2-2---2--2-2--2-2-0---0--0-0--0-0-0---0--0-0--------------------|
a--0--0-0--0-0-0---0--0-0--0-0-0---------------------------------------------|
e----------------------------------3--3-3--3-3-3---3--3-3-3-2-3-0------------|

e--0----0----0-----0----0----0----------3----3-------------------------------|
b--1--1-1--1-1-1---1--1-1--1-1-----0--0-0--0-0-0-----------------------------|
g--2--2-2--2-2-2---2--2-2--2-2-0---0--0-0--0-0-0------0-0-0-0-0-0-0----------|
d--2--2-2--2-2-2---2--2-2--2-2-0---0--0-0--0-0-0------0-0-0-0-0-0-0----------|
a--0--0-0--0-0-0---0--0-0--0-0-0---------------------------------------------|
e----------------------------------3--3-3--3-3-3---3-3-3-3-3-3-3-0-----------|
							w/dist.

CHORUS
e----------------------------------------------------------------------------|
b--5--5-5-5-5-5-5--/7--7-7-7-7-7-0-------------------------------------------|
g--5--5-5-5-5-5-5--/7--7-7-7-7-7-0---3-3-3-3-3-3-3-3---3-3-3-3-3-3-3-0-------|
d--5--5-5-5-5-5-5--/7--7-7-7-7-7-0---3-3-3-3-3-3-3-3---3-3-3-3-3-3-3-0-------|
a--3--3-3-3-3-3-3--/5--5-5-5-5-5-0---1-1-1-1-1-1-1-1---1-1-1-1-1-1-1-0-------|
e--------------------------------0-------------------------------------------|


INTERLUDE
e----------------------------------------------------3--3---3-2-0------------|
b----------------------------------------------------0--0---------3-2-0------|
g--2--0-2b4--r2p0-2b4r2p0--2--0-2b4--r2p0-2b4r2p0-0--0--0---------------3-0--|
d--2-----------------------2----------------------0--0--0--------------------|
a--0-----------------------0-------------------------------------------------|
e-------------------------------------------------3--3--3--------------------|
then repeat the chorus riff twice.


OUTRO
e--0--0----------------------------------------------------------------------|
b--1--1----------------------------------------------------------------------|
g--2--2----------------------------------------------------------------------|
d--2--2----------------------------------------------------------------------|
a--0--0----------------------------------------------------------------------|
e----------------------------------------------------------------------------|


_____________________________________________________________________________

Radio Friendly Unit Shifter
_____________________________________________________________________________

TUNING:

Standard dropped down 1/2 step

INTRO
e---------------12----------------12----------------12-------0---------------|
b-10-----11--------------11-----------------11---------------0---------------|
g----------------------------------------------------------------------------|
d----------------------------------------------------------------------------|
a----------------------------------------------------------------------------|
e----------------------------------------------------------------------------|
w/Poly chorus vibrato pedal			            (poly chorus off)
after the drums come in, only muffled strings and feedback is played...

MAIN RIFF/CHORUS
e----------------------------------------------------------------------------|
b----------------------------------------------------------------------------|
g-----5-5-------0--4-4-------------------------------------------------------|
d-7-7-5-5-X-5-5-0--4-4-X-4-4-------------------------------------------------|
a-7-7-3-3-X-5-5-0--2-2-X-4-4-------------------------------------------------|
e-5-5-----X-3-3-0------X-2-2-0-2-0-------------------------------------------|

VERSE (heavily improvised, only most important chords are shown)
e----------8----8------------------------------------------------------------|
b-------5--8----8------------------------------------------------------------|
g-2-----5--X----8------------------------------------------------------------|
d-2-----5--7----7------------------------------------------------------------|
a-0-----0--------------------------------------------------------------------|
e----------------------------------------------------------------------------|
	   Polychorus on

BRIDGE (3.5 times)
e----------------------------------------------------------------------------|
b----------------------------------------------------------------------------|
g-5-5-5-5-5-5-5-5--/9-9-9-9-9-9-9-0---2-2-2-2-2-2-2-0------------------------|
d-5-5-5-5-5-5-5-5--/9-9-9-9-9-9-9-0---2-2-2-2-2-2-2-0---5-5-5-5-5-5-5-0------|
a-3-3-3-3-3-3-3-3--/7-7-7-7-7-7-7-0---0-0-0-0-0-0-0-0---5-5-5-5-5-5-5-0------|
e-------------------------------------------------------3-3-3-3-3-3-3-0------|


That's it mainly. The outro is just noise
First there's silence for few bars and then there's the feedback
and noise things like tuning down the guitar etc..


_____________________________________________________________________________

tourette's
_____________________________________________________________________________

TUNING:

Standard dropped down 1/2 step

INTRO/VERSES
e----------------------------------------------------------------------------|
b----------------------------------------------------------------------------|
g---------3-3-3-3---4-4-4-4--------------------------------------------------|
d-4-4-4-4-3-3-3-3---4-4-4-4-5-5-5-5------------------------------------------|
a-4-4-4-4-1-1-1-1---2-2-2-2-5-5-5-5------------------------------------------|
e-2-2-2-2-------------------3-3-3-3------------------------------------------|

CHORUS
e----------------------------------------------------------------------------|
b----------------------------------------------------------------------------|
g----4h5p4-4--5p4p0----------------------------------------------------------|
d-4--------------------------------------------------------------------------|
a-4--------------------------------------------------------------------------|
e-2--------------------------------------------------------------------------|

_____________________________________________________________________________

All Apologies
_____________________________________________________________________________

TUNING:

Drop D down 1/2 step

INTRO/VERSES/OUTRO
e----------------------------------------------------------------------------|
b----------------------------------------------------------------------------|
g----------------------------------------------------------------------------|
d--------------------------------/12-12-10-9---------------------------------|
a-9-9-10-9-/12-12-10-9---9-9-10-9-------------9-9-10-9-/12-12-10-9-----------|
e-0----------------------0-0-0--0-------------0------0--0--------------------|

e----------------------------------------------------------------------------|
b----------------------------------------------------------------------------|
g-----------11-11-9----------------------------------------------------------|
d--------------0----12-------------------------------------------------------|
a--9-9-10-9------------------------------------------------------------------|
e--0-0-0--0------------------------------------------------------------------|

CHORUS
e----------------------------------------------------------------------------|
b----------------------------------------------------------------------------|
g----------------------------------------------------------------------------|
d-5-5-5-5-5-5-5--------------------------------------------------------------|
a-5-5-5-5-5-5-5--------------------------------------------------------------|
e-5-5-5-5-5-5-5--------------------------------------------------------------|

and then
e----------------------------------------------------------------------------|
b--2-------------------------------------------------------------------------|
g--2-------------------------------------------------------------------------|
d--2-------------------------------------------------------------------------|
a--0-------------------------------------------------------------------------|
e----------------------------------------------------------------------------|
Suggest correction
Give kudos to tab author, rate the tab!
1 2 3 4 5
comments
print report bad tab
4 comments total. Showing first comments.
0 reply
selwood 10 Feb 08, 2007 04:53 AM

this is straight from nirvana-music.com

+1 reply
Paperclipz 25 Feb 08, 2007 11:04 PM

Yeah bro do it urself

0 reply
Repitition 10 Feb 08, 2007 11:38 PM

You suck, don't copy

guest
You may want to rate the tab now too:
select rating
Wanna post a correction for this tab? Suggest correction