Oops, an error
Loading. Please wait.

Incesticide Bass Tab

3,875 views 9 this week
3 commentsread comments
1 2 3 4 5
worth learning
x 5
add to favorites
launch autoscroll
font size
0
reset
guitar tuner
Tab Pro tools
  • play this tab
  • loop segment
  • change instrument
  • show fretboard
  • metronome
×
Best way to learn
"Incesticide"
Autoscroll
slow
fast
+/-
esc
set tempo
stop
Contributor
-INCESTICIDE-

1.Dive
2.Sliver
3.Stain
4.Been a Son
5.Turnaround
6.Molly's Lips
7.Son of a Gun
8.(New Wave) Polly
9.Beeswax
10.Downer
11.Mexican Seafood
12.Hairspray Queen
13.Aero Zeppelin
14.Big Long Now
15.Aneurysm


1) Dive

Intro/Verse
G-----------------------|
D-----------------2-2-2-|
A-----------------------|
E-2-0-2-2-0-2-0-0-------|

Chorus
G---------------------|-----------------------|
D---------------------|-----------------2-2-2-|
A-2---2-4---4---------|-----------------------|
E-------------3---3-0-|-2-0-2-2-0-2-0-0-------|

2) Sliver

G----------------------------|----------------------------|
D----------------------------|----------------------------|
A----------------------------|----------------------------|
E-7-7-7--0-0-0--7-7-0--0-5-7-|-7-7-7--0-0-0--7-5-0--0-5-7-|

3) Stain

Verse
G---------------|
D---------------|
A-1--2-2--3-3-3-|
E---------------|

Chorus
G---------------------------|
D-----------1-1-1-1-1-1-1-1-|
A-2-2--1-1------------------|
E---------------------------|

4) Turnaround

Verse
G------------------------------|a few times
D------------------------------|
A------------------7-7-7-7-7-7-| 
E-0-0-0-0-0-0-0-0--------------|

Chorus
G------------------------------|twice
D------------------------------|
A-5-5-5--3-3-2-0-0-0-0-0-0-0-0-|
E------------------------------|

G-------------------------------|-------------------------------|then 1st part of this again
D-------------------------------|-------------------------------| 
A-------------------------------|---------------5-5-5-5-5-5-5-5-|
E-1-1-1--3-3-3--5-5-5-5-5-5-5-5-|-1-1-1--3-3-3------------------| 

5) Been A Son

Verse
G----------------------------|this or-and that:-----------------------------|
D----------------------------|                 -----------------------------|
A-5--5--3-2-0--5--5--0-3-2-0-|                 -5--5--3-2-0--5--5-5-5-3-2-0-|
E----------------------------|                 -----------------------------|

Chorus
G-----------------------------|
D-----------------------------|
A-5-5-5--3-3-3--2-2-2-2-2-2-2-|
E-----------------------------|

6) Molly's Lips

G------------------------------|
D------------------------------|
A--------3-3-3---------3-3-3-3-|
E-3-3-3---------3-3-3----------|

7) Son of a Gun
   
Intro and also played under all the verses
G----------------------------|---------------------------|
D----------------------------|---------------------------|
A----------------7--7--7--7--|--5-----5--5--7--7--7--7---|
E----5-----5--5--------------|---------------------------|

     Chorus
G-----------------------------|--------------------------|
D-----5--5--5--5--5--5--5--0--|--------------------------|
A-----------------------------|--3-----3--3--3--3--3--4--|
E-----------------------------|--------------------------|

G--------------------------|--------------------------|
D-----------------3--------|--------------------------|
A--5-----3--4--5-----5--0--|--3--3--3--3--3--3--2--0--|
E--------------------------|--------------------------|

G---------------------------|
D---------------------------|
A-----------------------0---|
E--3-----3--3--3--3--3------|

G----------------------------|
D-*--------------------------|
A-*--------------------------|
E----3-----3--3--3--3--3--3--|

                  (2 times)
G---------------------------|---------------------------|
D---------------------------|---------------------------|
A--5--5--5--5--5--5--5--5---|---------------------------|
E---------------------------|---5-----5--5--5--5--5--5--|

                   (2 times)
G---------------------------|
D---------------------------|
A--7--7--7--7--7--7--7--7---|
E---------------------------|

8) (New Wave) Polly

Verse
G--------------------------|
D--------------------------|
A---------------5-5--3-3-3-|
E-0-0--0-3-3--3------------|

Chorus 
G----------------------------|
D----------------------------|
A-5-5-5--3-3-3---------------|
E---------------3-3-3--6-6-6-|

9) Beeswax

G-----------------------|
D-----------------------|
A-2-2-2-1-0-0-0-0-0-----|
E-------------------4-4-|

G------------------|
D------------------|
A------------------|
E--0-0-3-3-3-0-0-0-|

G----------|
D----------|
A----------|
E--2-2-2-1-|

10) Downer

G-------------------|
D-------------------|                     
A-------------------|
E-0-0-0-8-8-8-8-8-8-|

G-----------|
D-----------|
A-1-2-3-2-1-| 
E-----------|

Interlude
G----------------------------------|
D----------------0-0-0-0-1-1-1-1---|
A-0-0-0-0-1-1-1-1------------------|
E----------------------------------|

11) Mexican Seafood

G------------------------------|
D------------------------------|
A------------------------------|
E---5--5-5--3-3-3--0-0-0-0-0---|

G-------------------------------------------------------|
D-------------------------------------------------------|
A---------------------------------------------------3---|
E---0-3--5--5--5-5-5-5---5-5-5-5-5---3--3--5-5-5-5------|

G--------------------------------------|                                      
D--------------------------------------|
A--------------------------3-3-2-0-2---|
E---0--3-3-3-3--0--3-------------------|

G-------------------------------|
D-------------------------------|
A------------------5--3--0--2---|
E---0--3--5-5-------------------| 

12) Hairspray Queen

G----------------|
D----------8-----|
A--5---------7---|
E----0-3/--------|

13) Aero Zeppelin

G-------|
D-------|
A-------|
E--0--0-|

G---------------------------|
D---------------------------|
A--6-6-6--2-2-0-1-1-0-------|
E----------------------3-0--|

G---------------------------------------|
D---------------------------------------|
A-------------4-4-4-4-4--0--2-1--1-1--0-|
E--6-6-6-6-6----------------------------|

G-----------------|
D-----------------|
A--0-0------------|
E---------3-3-3-2-| 

14) Big Long Now

G------------------------|
D------------------------|
A-------4------5-5--6--5-|
E-6-6------6-------------|

G------------------------|
D------------------------|
A------------------------|
E-7-7-7-6-6-6-5-5-4--3---|

G------------------------|
D------------------------|
A---------5-5-5-4--4-4-4-|
E-6-6-6------------------|

15) Aneurysm

G-------------------------------------|
D-------------------------------------|
A-----------3-3-3-3--2-2-2-2--0-0-0-0-|
E-2-(2)-2-2---------------------------|

G------------------------------------------------------------------|
D------------------------------------------------------------------|
A-2-2-2-2-2-2-2-2-2-2-2-2-2-2-2-2--5-5-5-5-5-5-5-5-5-5-5-5-5-5-5-5-|
E------------------------------------------------------------------|

G-----------------------------|
D-----------------------------|
A-----2-2-2-2-0-0-0-0-2-2-2-2-|
E-3-2-------------------------|

G---------------|
D---------------|
A---------------|
E-0---0---0---0-|

----------------------------------------------------------------------------------------
My e-mail: haese@swing.be
comments
print report bad tab
3 comments total.
0 reply
_futurerockstar wrote on April 22 2006, 05:01 am

this sucks

0 reply
mpfloyd wrote on October 21 2008, 10:02 pm

i only looked at sliver, but it was way wrong.

0 reply
Captain SG wrote on June 13 2009, 05:08 pm

not accurate at all

I want to post or [tab]
guest
You may want to rate the tab now too:
select rating
Please do not post tabs as comments. Select "correction" instead!