Oops, an error
Loading. Please wait.
We have an official Lake Of Fire tab made by UG professional guitarists. Check out the tab »
×
by Nirvana
29,026 views 33 this week
3 commentsread comments
1 2 3 4 5
x 12
add to favorites
×
Save as Personal and add changes to this tab that will be seen only by you. Learn more ›
×
You can save this tab as Personal to edit and correct it or add notes. All changes will be seen only by you. Learn more »
save as personal
new!
launch autoscroll
font size
0
reset
guitar tuner
Autoscroll
slow
fast
+/-
esc
set tempo
stop
Author
(Gtr 1) (E A D G) - 'Chris Novoselic - Bass'

[Intro]
   Q=74
  4/4
(Gtr 1)
   W           E Q  E E E Q    E Q  E E E S E.   E Q  E E E Q
G|----------|---------------|-----------------|---------------|
D|----------|---------------|-----------------|---------------|
A|----------|------------1--|--------3-3-3-1--|------------1--|
E|----------|-3-3--3-1-1----|-3-3--3----------|-3-3--3-1-1----|

   E Q.   E E Q    E Q  E E E Q    E Q  E E E Q
G|---------------|---------------|---------------|
D|---------------|---------------|---------------|
A|-3-3-----------|---------------|---------------|
E|--------1-1-3--|-3-3--3-1-1-3--|-3-3--3-1-1-3--|

[Chorus]
     E Q  E E E Q    E Q  E E E S E.   E Q  E E E Q
G|----------------|-----------------|---------------|
D|o---------------|-----------------|---------------|
A|o------------1--|--------3-3-3-1--|------------1--|
E|--3-3--3-1-1----|-3-3--3----------|-3-3--3-1-1----|

   E Q  E E E Q    E Q  E E E Q    E Q  E E E Q
G|---------------|---------------|---------------|
D|---------------|---------------|---------------|
A|-3-3--3--------|----------1----|---------------|
E|--------1-1-3--|-3-3--3-1---3--|-3-3--3-1-1-3--|

[Verse 1 & 2]
                                                  2/4      4/4
   E Q.   E Q.     E Q.   E Q.     E Q.   E Q.     E Q  E   E E Q  E E E  E
G|---------------|---------------|---------------|--------|--------------------|
D|-0-0-----------|-0-0-----------|-0-0-----------|-5-5--5-|-7-7-7-------------o|
A|--------1-1----|--------0-0----|--------1-1----|-3-3--3-|-5-5-5--5-5-5-10\--o|
E|---------------|---------------|---------------|--------|--------------------|

[Chorus]
   E Q  E E E Q    E Q  E E E S E.   E Q  E E E Q    E Q  E E E Q
G|---------------|-----------------|---------------|----------------|
D|---------------|-----------------|---------------|----------------|
A|------------1--|--------3-3-3-1--|------------1--|-3-3--3---------|
E|-3-3--3-1-1----|-3-3--3----------|-3-3--3-1-1----|--------1-1-3---|

   E Q  E E E Q    E Q  E E E Q    E Q  E E E Q    E Q  E E E E E
G|---------------|---------------|---------------|-----------------|
D|---------------|---------------|---------------|-----------------|
A|---------------|----------1----|---------------|--------------1--|
E|-3-3--3-1-1-3--|-3-3--3-1---3--|-3-3--3-1-1-3--|-3-3--3-1-1-3----|

[Guitar Solo/Outro] 
   Q  E. S E E E E   E E Q  E E E E   Q  E. S E E Q    Q  E E E E Q
G|-----------------|----------------|----------------|----------------|
D|-----------------|----------------|----------------|----------------|
A|-1---------------|-1--------------|-1--------------|-1--------------|
E|----3--0-1-1-3---|---3-3--1-1-3---|----3--0-1-1-3--|----3-0-1-1-3---|

   E E E. S E E E E   Q  E E E E Q
G|------------------|---------------|
D|------------------|---------------|
A|-1-1--------------|---------------|
E|-----3--0-1-1-3---|-3--3-0-1-1-3--|

   E Q.   E E Q    E E +S  E. E E Q    +W
G|---------------|-------------------|--------*|
D|---------------|-------------------|--------*|
A|---------------|-------------------|--------*|
E|-3-3----1-1-3--|-3-3-(3)-3--1-1-3--|-(3)----*|



************************************

| \    Slide down
| *    Natural harmonic
  

************************************
Suggest correction
comments
print report bad tab
3 comments total.
+1 reply
Azizzle 195 Apr 16, 2008 01:25 PM

dude, this is in the wrong tuning, u did it to 1/2 step down, but u could do it in standard by goin down one fret instead of what you had.

0 reply
JMRaider 93 Jul 17, 2008 12:55 PM

you're right

0 reply
Samqua93 10 Apr 17, 2009 02:00 PM

it sounded good thanks man

guest
You may want to rate the tab now too:
select rating
Wanna post a correction for this tab? Suggest correction