Oops, an error
Loading. Please wait.
We have an official Lake Of Fire tab made by UG professional guitarists. Check out the tab »
×
by Nirvana
7,165 views 15 this week
1 commentread comment
1 2 3 4 5
x 9
add to favorites
×
Save as Personal and add changes to this tab that will be seen only by you. Learn more ›
×
You can save this tab as Personal to edit and correct it or add notes. All changes will be seen only by you. Learn more »
launch autoscroll
font size
0
reset
guitar tuner
edit
Autoscroll
slow
fast
+/-
esc
set tempo
stop
Author
Difficulty
Title: "Lake of Fire"
Artist: Nirvana (Meat Puppets Cover)
Album: MTV Unplugged: Live in NY
Bassist: Cris Kirkwood (Meat Puppets)
Tuning: Standard Tuning(EADG)
Tabbed by: Ty W. (tydogg2443@aol.com)
--------------------------------------------------------------------
*REVISED 4/5/2014: I've done a complete overhaul on my previous version of the tab. I've gone
 through the recording repeatedly, doing my best to pick up most of the little variations thrown
 into the performance(and there are quite a few). Some were too subtle or buried to pick up on,
 but this tab should be more than sufficient to point you in the right direction.
 Hopefully someone will find tab valuable. Have fun with it. Lot of room to make it your own.
--------------------------------------------------------------------

INTRO
G|-----------------|-------------------|----------------|----------------|
D|-----------------|-------------------|----------------|----------------|
A|--------------0--|---------2-2-02-0--|------------0---|--2-2-----------|
E|--2-2--2\-0-0----|-2-2--2------------|-2-2--2-0-0-----|---------0-0-2--|

 |-----------------|-----------------|
 |-----------------|-----------------|
 |-----------------|-----------------|
 |--2-2--2\-0-0-2--|--2-2-----0-0-2--|

CHORUS
G|-----------------|--------------------|-----------------|-----------------|
D|-----------------|--------------------|-----------------|-----------------|
A|--------------0--|---------2-2-0h2-0--|--------------0--|--2-2--(2)-------|
E|--2-2---2-0-0----|-2-2---2------------|--2-2--2\-0-0----|----------0-0-2--|

POST-CHORUS
G|-----------------|-----------------|
D|-----------------|-----------------|
A|------------0----|-----------------|
E|--2-2--22-0---2--|--2-2--(2)0-0-2--|

BRIDGE/VERSE
G|---------------|---------------|---------------|-----------------------|
D|---------------|---------------|---------------|-----------------------|
A|-4-4-----------|-4-4-----------|-4-4-----------|-2-2----4---4---4-4-4\-|<-(Slide to 2 for Chorus)
E|--------5-5----|--------4-4----|--------5-5----|-----------------------|

CHORUS
G|-----------------|--------------------|-----------------|-----------------|
D|-----------------|--------------------|-----------------|-----------------|
A|--------------0--|---------2-2-0-2-0--|--------------0--|--2-2--(2\)------|
E|--2-2---2\0-0----|-2-2---2------------|--2-2--2\-0-0----|----------0-0-2--|

POST-CHORUS
G|----------------|-----------------|
D|----------------|-----------------|
A|-----------0----|-----------------|
E|--2-2----0---2--|--2-2--(2)0-0-2--|

BRIDGE/VERSE
G|---------------|---------------|---------------|-----------------------|
D|---------------|---------------|---------------|-----------------------|
A|-4-4-----------|-4-4-----------|-4-4-----------|-2-2---4--4--4--4-4-4--|
E|--------5-5----|--------4-4----|--------5(5)---|-----------------------|

CHORUS
G|-----------------|--------------------|-----------------|-----------------|
D|-----------------|--------------------|-----------------|-----------------|
A|--------------0--|---------2-2-0h2-0--|--------------0--|--2-2---2\-------|
E|--2-2---2\0-0----|-2-2---2------------|--2-2--2--0-0----|----------0-0-2--|

GUITAR SOLO/OUTRO
G|----------------|-----------------|-----------------|--------------------|
D|----------------|-----------------|-----------------|--------------------|
A|----------------|------------0----|-----------------|-----------------(0)|
E|--2-2----0-0-2--|--2-2-222-0---2--|-22222222-0-0-2--|-22222222-0-0-2h4---|

 |----------------|-----------------|-----------------|----------------|
 |----------------|-----------------|-----------------|----------------|
 |--0-------------|--0-2------------|--0--------------|--0-------------|
 |----2----0-0-2--|------2---0-0-2--|----2--(0)0-0-2--|----2----0-0-2--|

 |----------------|-----------------|----------------|------------------------||
 |----------------|-----------------|----------------|------------------------||E
 |-0-0------------|-0-2^-0----------|----------------|-----------0------------||N
 |-----2---0-0-2--|--------2--0-0-2-|--2-2----0-0-2--|--2-2----0---2(let ring)||D




=============================================

Quick Tab Key:
 / = Slide Up
 \ = Slide Down
 h = Hammer-On
 p = Pull-Off
( )= Faint/Optional Notes
 ^ = Quarter Bend(Bend Approx. ¼ Semi-Tone) 

            
            
Suggest correction
Creating personal tab
Creating personal tab
You can edit any tab online and save it as your Personal.

You can edit, replace or remove any tab part or add personal notes – all changes will be seen only by you.

Personal tabs can be accessed anytime from any device, even offline.
Learn more »
comments
print report bad tab
1 comment total.
0 reply
FellSummer4 20 Sep 04, 2017 08:22 PM

Sounds pretty nice, all the other versions sound a little off, but with the right rhythm it sounds great! Thanks man :-)

guest
You may want to rate the tab now too:
select rating
Wanna post a correction for this tab? Suggest correction