Oops, an error
Loading. Please wait.

Love Buzz Bass Tab

version 1
version 1

Interactive

25,562 views 3 this week
8 commentsread comments
1 2 3 4 5
x 14
add to favorites
launch autoscroll
font size
0
reset
guitar tuner
Autoscroll
slow
fast
+/-
esc
set tempo
stop
Help us to improve Ultimate-Guitar.com Take our survey!
×
#----------------------------------PLEASE NOTE---------------------------------#
#This file is the author's own work and represents their interpretation of the #
#song. You may only use this file for private study, scholarship, or research. #
#------------------------------------------------------------------------------##
From: STAFF1209@aol.com

Love Buzz by Nirvana
this rif is repeated until later on in the song 

                       trill
g---------------------7-8--------------------------------
d---8-----6-8-9----------------------------------------
e----------------------------------------------------------
a---------------------------------------------------------

rif # 2

g-----7-----7-8--8-7-----------|---------7-----------------------------------
d---8----8---------------8-6-8-|-6-8---------8-6-8----------------------------
---
a----------------------------------|----------------------------------------
e----------------------------------|------------------------------------------


thats it
by staff 1209@aol.com
real name scott broschart



Suggest correction
comments
print report bad tab
8 comments total. Showing first comments.
+1 reply
payback 10 Jun 03, 2002 12:00 AM

how the hell do you trill?!?!?

0 reply
TheToad 41 Jul 08, 2002 12:00 AM


G---------7-7h8p7---
D--8--6-8------------

0 reply
DiscipleOfKoRn 71 Apr 25, 2005 12:00 AM

no solo...

guest
You may want to rate the tab now too:
select rating
Wanna post a correction for this tab? Suggest correction