Oops, an error
Loading. Please wait.

Mexican Seafood tab

version 3
version 3

Whole song

Interactive

by Nirvana
6,336 views 15 this week
10 commentsread comments
1 2 3 4 5
x 7
add to favorites
×
Save as Personal and add changes to this tab that will be seen only by you. Learn more ›
×
You can save this tab as Personal to edit and correct it or add notes. All changes will be seen only by you. Learn more »
launch autoscroll
font size
0
reset
how to read this tab
guitar tuner
edit
Autoscroll
slow
fast
+/-
esc
set tempo
stop
Author
-------------------------------------------------------------------------------
			     Mexican Seafood - Nirvana
-------------------------------------------------------------------------------
Tabbed by:Kurtd121

Tuning:down 1/2 a step

Okay, I’ve been working on this tab for a while and I know its right. I love
Incesticide and this is one of Nirvana’s best. Listen to the song before playing,
its not easy.

W/ distortion

Intro:

Speed=184

  Rhy.Fig.1
|-----5-----------|-----------------|-----5-----------|-----------------|
|-----5-----0-0---|-----------------|-----5-0---0-0---|-----------------|
|-------0---------|-----------------|-----------------|-----------------|
|-----------------|-----------------|-----------------|-----------------|
|-0-------------4-|---4-4-5-5-4-----|-0-------------4-|---4-4-5b--5-4-0-|
|---------3-----2-|-------------5-3-|---------3-----2-|---2-2-----------|
 									end Rhy.Fig.1
|-----5-----------|-----------------|-----5-----------|-----------------|
|-----5-----0-----|-----------------|-----5-----0-0---|-----------------|
|-------0---------|-----------------|-----------------|-----------------|
|-------0---------|-----------------|-----------------|-----------------|
|-0-------------4-|---4-4-5-4-2-0---|-0-----0-------4-|---4---5b--5-4-0-|
|---------3-----2-|---------------3-|---------3-----2-|-----------------|

Verse:

  Rhy.Fig.2		   end Rhy.Fig.2
|-----------------|-----------------|
|-----------------|-----------------|
|-----------------|-----------------|
|-2---2+------2---|-2+------2-------|
|-1-----0-1-0-1---|---0-1-0-1-------|
|-----------------|-------------3~--|
        PM__/        PM___/

Chorus:

Rhy.Fig.1

Rhy.Fill 1
|-----5-----------|-----------------|
|-----5-----0-0---|-----------------|
|-----------------|-----------------|
|-----------------|-----------------|
|-0-----0-------4-|-----4-5b--5-4-0-|
|---------3-----2-|-----------------|

Repeat Verse

Repeat Chorus

Interlude:

Speed=92

|-----------------------------------|-----------------------------------|
|-------------14---13-12------------|-----------------------------------|
|-----11-10-9-14---13-12---11-12-0--|-----11-10-9-14---13-12-11---------|
|-2---11-10-9-14---13-12---11-12-0--|-2-2-11-10-9-14---13-12-11\10/11---|
|-0---------------------------------|-0-0-----------------------------0-|
|-----------------------------------|-----------------------------------|

|-----------------------------------|-----------------------------------|
|-------------14--------------------|-------------14--------------------|
|-----11-10-9-14---13-12-11---------|-----11-10-9-14---13-12------------|
|-2-2-11-10-9-14---13-12-11\10/11---|-2-2-11-10-9-14---13-12------------|
|-0-0-----------------------------0-|-0-0----------------------5-5------|
|-----------------------------------|------------------------------14\--|

|-----------------------------------|-----------------------------------|
|-----------------------------------|-----------------------------------|
|-----------------------------------|-----------------------------------|
|-----------------2-1-0-------------|-----------------2-1-0-------------|
|---------0-1-2---------2-1-0-------|---------0-1-2---------2-1-0-------|
|-0-3-4-0-------0-------------3b--4-|-0-3-4-0-------0-------------3b--3-|

|-----------------------------------|-----------------------------------|
|-----------------------------------|-----------------------------------|
|-----------------------------------|-----------------------------------|
|-----------------2-1-0-------------|-----------------2-1---------------|
|---------0-1-2---------2-1-0-------|---------0-1-2-------0-2-1-0-------|
|-0-3-4-0-------0-------------3b--3-|-0-3-4-0-------0-------------3b--3-|

Repeat Verse w/ Speed=184

Outro:

|-----------------|-----------------|-----------------|-----------------|
|-----------------|-----------------|-----------------|-----------------|
|-----------------|-----------------|-----------------|-------------0---|
|-2---------------|-----------------|-----------------|-------------0---|
|-1---1-0-1-0—1---|-1-0-1-0-1-------|-2---1-0-1-0-1---|-1-0-1-0-1-------|
|-----------------|-------------3---|-----------------|-------------3---|

|-----------------|-----------------|-----------------|-----------------|
|-----------------|-----------------|-----------------|-----------------|
|-----------------|-----------------|-----------------|-----------------|
|-2---------------|-----------------|-----------------|-----------------|
|-1---1-0-1-0—1---|-1-0-1-0-1-------|-2---1-0-1-0-1---|-1-0-1-0-1-------|
|-----------------|-------------3---|-----------------|-------------3---|

|---------------|
|-5~------------|
|-3~------------|
|-2~------------|
|---------------|
|---------------|


| b  bend note
| /  slide up
| \  slide down
| h  hammer-on
| p  pull-off
| ~  vibrato
| +  harmonic
| x  Mute note
===============================================================================

            
            
Suggest correction
Creating personal tab
Creating personal tab
You can edit any tab online and save it as your Personal.

You can edit, replace or remove any tab part or add personal notes – all changes will be seen only by you.

Personal tabs can be accessed anytime from any device, even offline.
Learn more »
comments
print report bad tab
10 comments total. Showing first comments.
0 reply
ixque 30 Jan 30, 2006 03:07 AM

It isnt wrong but kurt could never have played this. It is much, much more simple then this..

0 reply
DoctorFu 10 Jan 30, 2006 01:57 PM

This is way too complicated.

-1 reply
grunge1994 10 Nov 24, 2006 03:40 PM

kurt could play his u stupid queer

guest
You may want to rate the tab now too:
select rating
Wanna post a correction for this tab? Suggest correction