Oops, an error
Loading. Please wait.

Milk It Tab

version 4
version 4

Whole song

Interactive

21,191 views 144 this week
1 commentread comment
1 2 3 4 5
excellent!
x 5
add to favorites
launch autoscroll
font size
0
reset
how to read this tab
guitar tuner
Autoscroll
slow
fast
+/-
esc
set tempo
stop
Help us to improve Ultimate-Guitar.com Take our survey!
×
Author
[Intro]

e|--12---------------------11--|-------------5--x--x--x----|
B|-------11---12------10-------|----------5----------------|
G|----------------9------------|---------------------------|
D|-----------------------------|--9------------------------|
A|-----------------------------|------0--------------------|
E|-----------------------------|---------------------------|
                                                                         
e|--7----------5----------|----------------------------|------------------|
B|----------6-------------|--7--6--5--4--3-------------|------------------|
G|------5--------------6--|-------------------4/-------|------------------|
D|-----------------7------|----------------------------|------------------|
A|------------------------|----------------------------|------------------|
E|------------------------|----------------------------|------------------|


[Chorus]

e|----------------------------------|---------------------------|
B|--------9-9-----------------------|--------9-9----------------|
G|--------9-9-----------------------|--------9-9----------------|
D|--------9-9-----------------------|--------9-9----------------|
A|--8-8-8-7-7-5-5---5-5-5-6-6-2-2-2-|--8-8-8-7-7-5-5---5--------|
E|--6-6-6-----3-3-0-3-3-3-4-4-0-0-0-|--6-6-6-----3-3p0-3--------|(x2)
                                                                      
e|----------------------------------|----------------------------------|
B|--------9-9-----------------------|--------9-9-----------------------|
G|--------9-9-----------------------|--------9-9-----------------------|
D|--------9-9-----------------------|--------9-9-----------------------|
A|--8-8-8-7-7-5-5---5-5-5-6-6-2-2-2-|--8-8-8-7-7-5-5-------------------|
E|--6-6-6-----3-3p0-3-3-3-4-4-0-0-0-|--6-6-6-----3-3p0-3-3-3-4-4p0-0-0-|


[Verse]

e|------------------|------------------|----------------------|
B|------------------|------------------|---------------5--5---|
G|------------------|------------------|----------------------|
D|------------------|------------------|----------------------|
A|------------------|------------------|--1-------------------|
E|------------------|------------------|-----------0----------|

e|------------------------8--|-------------------------3--|
B|---------------------------|----------------------------|
G|------------------8---8----|----------------------2-----|
D|--------------------7------|----------------------------|
A|--3-3----------------------|----------------------------|
E|--6----6----6-0------------|--6--6-6-6-6-6-6-0----------|
                                                               
e|---------------------------3/-|-------------------------------|
B|------------------------------|-------------------------------|
G|------------------------2-----|-------------------------------|
D|------------------------------|-------------------------------|
A|------------------------------|-------------------------------|
E|--6-6-6--6-6-6-6-0--0-0-------|--6-6-6-6-6-6-6-6-0--0-0--0--0-|
                                                          
e|-------------------------------|---------------------------|
B|-------------------------------|---------------------------|
G|-------------------------------|---------------------------|
D|-------------------------------|---------------------------|
A|-------------------------------|---------------------------|
E|--6-6--6-6-6-6-6-0---0-0-0-0-0-|--6-6-6-6--6--6-0--0-0-----|
                                                                    
e|-----------------------------|------------------|------------------|
B|-----------------------------|------------------|------------------|
G|-----------------------------|------------------|------------------|
D|-----------------------------|------------------|------------------|
A|-----------------------------|------------------|------------------|
E|--6-6-6-6--6--6-0---0-0-0-0--|------------------|------------------|

(Repeat Chorus)

  And then this variation                                                                     
e|----------------------------------|----------------------------------|
B|--------9-9-9-9-x-----------------|--------9-9-9-9-x-----------------|
G|--------9-9-9-9-x-----------------|--------9-9-9-9-x-----------------|
D|--------9-9-9-9-x-----------------|--------9-9-9-9-x-----------------|
A|--8-8-8-7-7-7-7-x-5-5-5---2-2-2-2-|--8-8-8-7-7-7-7-x-5-5-5---2-2-2-2-|
E|--6-6-6-----------3-3-3-4-0-0-0-0-|--6-6-6-----------3-3-3-4-0-0-0-0-|

e|----------------------------------|----------------------------------|
B|--------9-9-9-9-x-----------------|--------9-9-9-9-x-----------------|
G|--------9-9-9-9-x-----------------|--------9-9-9-9-x-----------------|
D|--------9-9-9-9-x-----------------|--------9-9-9-9-x-----------------|
A|--8-8-8-7-7-7-7-x-5-5-5---2-2-2-2-|--8-8-8-7-7-7-7-x-5-5-5---2-2-2-2-|
E|--6-6-6-----------3-3-3-4-0-0-0-0-|--6-6-6-----------3-3-3-4-0-0-0-0-|


[Verse]

e|--------------------|-----------------------3--|-------------------------------|
B|--------------------|--------------------------|-------------------------------|
G|--------------------|--------------------2-----|-------------------------------|
D|--------------------|--------------------------|-------------------------------|
A|--------------------|--------------------------|-------------------------------|
E|--6--------0--------|--6---6--6--6-0--0--------|--6-6-6-6-6-6-6-6-0-0--0--0--0-|
                                                            
e|--------------------------|--------------------------------|
B|--------------------------|--------------------------------|
G|--------------------------|--------------------------------|
D|--------------------------|--------------------------------|
A|--------------------------|--------------------------------|
E|--6-6-6-6--6--6-0---0-----|--6-6-6-6-6-6-6-6-0--0-0-0-0--0-|
                                                                        
e|---------------------------------|
B|---------------------------------|
G|------------------------------0--|
D|------------------------------0--|
A|------------------------------0--|
E|--6-6-6-6-6-6-6-6-0-0-0-0-0-0-0--|

(Repeat chorus 2)


[Solo]

e|------------------4-----------|----------------------------------------|
B|------5--5----5-4---4-4-4-4/8-|--8-8-8-7--7/14-14-14-14--13--13-16--16-|
G|----3-------3-----------------|----------------------------------------|
D|------------------------------|----------------------------------------|
A|------------------------------|----------------------------------------|
E|------------------------------|----------------------------------------|
                                            
e|---------------------------------------------|
B|--16p15-16p15-16-15---11-11-10-10-7-6--5--4--|
G|---------------------------------------------|
D|---------------------------------------------|
A|---------------------------------------------|
E|---------------------------------------------|
 
e|-----------------------------------0--|
B|--5-5--4-4---2--0-4-5b-5b-5b-5b-5b-0--|
G|------------------4----4b-------------|
D|--------------------------------------|
A|--------------------------------------|
E|--------------------------------------|
                                               
e|---12--12-12------------------16--18--------------|
B|-------12-12--12-12/13-14-16----------16--17--18--|
G|--------------------------------------------------|
D|--------------------------------------------------|
A|--------------------------------------------------|
E|--------------------------------------------------|
 
e|---------------------------------------------|---0-2-3--5------------------|
B|--17-17/18-18-19-0-17-15-15--14--13---12b--0-|-------------4-3-0-0-0-0---5-|
G|---------------------------------------------|---------------------------5-|
D|---------------------------------------------|-----------------------------|
A|---------------------------------------------|-----------------------------|
E|---------------------------------------------|-----------------------------|

e|--------------------------------|------------------|------------------|
B|--5--6-6-7-8-8--5p0-5b-5-5-5----|------------------|------------------|
G|--5--6-6-7-8-8---------4-4-4----|------------------|------------------|
D|--------------------------------|------------------|------------------|
A|--------------------------------|------------------|------------------|
E|--------------------------------|------------------|------------------|

(repeat chorus 2)


************************************

| x  Dead note
| p  Pull-off
| b  Bend
| /  Slide up

************************************
Suggest correction
comments
print report bad tab
1 comment total.
0 reply
drunja81 77 wrote on April 14 2012, 05:53 pm

It's perfect

guest
You may want to rate the tab now too:
select rating
Please do not post tabs as comments. Select "correction" instead!