Oops, an error
Loading. Please wait.

Moist Vagina Tab

version 3
version 3

Whole song

Interactive

2,021 views 9 this week
1 commentread comment
1 2 3 4 5
accurate
x 3
add to favorites
launch autoscroll
font size
0
reset
how to read this tab
guitar tuner
Autoscroll
slow
fast
+/-
esc
set tempo
stop
Help us to improve Ultimate-Guitar.com Take our survey!
×
thought i'd make a tab not the best but here you go, work out a little on your own.

All Apologies single version

standard tuning or half step down, sounds good either way.

Intro/beginning riff 1 (F#5 chord will help here, see down at chorus for diagram)

e|---------------------------------------------------|
B|---------------------------------------------------|
G|---------------------------------------------------|
D|------------4--------------------------------------|
A|---------------------------------------------------|
E|----0----2-----------------------------------------|

i think theres some palm muting

riff 2 (similar to the first riff, F#5 chord will help again)

e|-------------0-------------------------------------|
B|-------------0-------------------------------------|
G|------------(0)------------------------------------|
D|---------------------------------------------------|
A|---------------------------------------------------|
E|----0---2(b)---------------------------------------|

theres an occasional bend, listen to the record for timing, also the g string it 
sometimes slipped in, again listen to the record.


riff 3 is similar to riff 2 but again slightly different
  this is the last one you hear, before the final chorus.
e|-------------------0-------------------------------|
B|-----------------0---------------------------------|
G|---------------0-----------------------------------|
D|---------------------------------------------------|
A|---------------------------------------------------|
E|----0----2(b)--------------------------------------|


Verse chords (she had a moist vagina, etc)

      A5               C5
e|-------------|   |----------------|
B|-------------|   |----------------|
G|-------------|   |------5---------|
D|----7--------|   |------5---------|
A|----7--------|   |------3---------|
E|----5--------|   |----------------|


A5       C5
      She had a moist Vagina

listen to the record for timing.


chorus
MARAJUANA!
      E5       F#5
e|------------------------------|
B|------------------------------|
G|------------------------------|
D|----2---------4---------------|
A|----2---------4---------------|
E|----0---------2/14b-----------|

song structure
intro riff 1
riff 2
verse
riff 2
verse
riff 2
verse
chorus
verse
chorus
riff 2 (without the 1st 2nd or 3rd string being played)
verse
  riff 2
{ the riffs are 4 bars but the last riff is 2 bars of riff 2 and then 2 of 3
  riff 3
verse
chorus
urghhhhhhhhhhhhhh ending

the last riff part please listen to understand what i mean.

Easy, but i dont know the end i guess Cobain is just messy around if not do a F# scale.

i know it isnt 100% accurate but its close.

listen to record for timings and anything else you can add or change.
a cover doesnt have to be spot on with the original, improvise a little.
Suggest correction What's this?
You can suggest a correction to this tab. Community and Mods will review your correction and vote to approve or reject it.
comments
We did not receive enough feedback on this tab! Please rate:
print report bad tab
1 2 3 4 5
1 comment total.
0 reply
gruossof 11 wrote on July 21 2014, 06:49 am

didn't like this contribution

I want to post or [tab]
guest
You may want to rate the tab now too:
select rating
Please do not post tabs as comments. Select "correction" instead!