Oops, an error
Loading. Please wait.
We have an official Mr Moustache tab made by UG professional guitarists. Check out the tab »
×
by Nirvana
960 views 1 this week
no commentswrite comment
1 2 3 4 5
x 3
add to favorites
×
Save as Personal and add changes to this tab that will be seen only by you. Learn more ›
×
You can save this tab as Personal to edit and correct it or add notes. All changes will be seen only by you. Learn more »
launch autoscroll
font size
0
reset
guitar tuner
backing track
0:00
0:00
edit
Autoscroll
slow
fast
+/-
esc
set tempo
stop
Author
Difficulty
Bass tab Nirvana's "Mr. Moustache" tabbed by me.(no shit?)

LISTEN TO THE SONG FOR TIMING

Legend
x   <--mute.
||   <--means repeat what's behind it(left of it technically)
*   <--hold the note
/    <--slide up towards higher frets (slide up? slide down?)

Starts with the kickass drum intro then comes krist(bass)
 0:05 - 0:16
G|-------------------------||
D|-------------------------||
A|---2---------------------||
E|-3--3-2-1-0-1-2----------||
 This part a bit before the lyrics start
0:16 - 0:32
G|-----------------||
D|-----------------||
A|-----------------||
E|-3-3-x-x-x-------||
"proouud..."
0:32 - 0:36
G|-------------------------||
D|-------------------------||
A|---2---------------------||
E|-3--3-2-1-0-1-2----------||
"Show me how..."
0:36 - 0:47
G|-----------------||
D|-----------------||
A|-----------------||
E|-3-3-x-x-x-------||
"..proouud.."
0:47 - 0:58
G|-------------------------||
D|-------------------------||
A|---2---------------------||
E|-3--3-2-1-0-1-2----------||
Back to my rule for this part!
G|-------||
D|-------||
A|-------||
E|-5x-7*-||  (remember, that(x) means mute imediatly after the 5 then hold(*) the 7)

G|--------------|
D|--------------|  "Easy in an easy chair!"
A|--------------|
E|2222222-------|

G|----------------||
D|----------------||
A|----------------||
E|-5x-7*----------||

G|---------------||
D|---------------||  "Poop as hard as rock."
A|---------------||
E|11111----------||

G|----------------||
D|----------------||
A|----------------||
E|-5x-7*----------||

G|--------------|
D|--------------|  "I don't like you anyway!"
A|--------------|
E|2222222|

G|----------------||
D|----------------||
A|----------------||
E|-5x-7*----------||

G|----------------||
D|----------------||  "Seal it in a box."
A|----------------||
E|-0-0-0----------||

G|------------------------||
D|------------------------||
A|------------------------||
E|-345-3-3-3-2-0----------||
"Noooow yooooou.."
G|-------------------------------------------|
D|-------------------------------------------|
A|-------------------------------------------|
E|7777777/10101010101010---------------------|  10's not 1's & 0's. Remember that(/) means slide
G|------------------------||
D|------------------------||
A|------------------------||
E|-345-3-3-3-2-0----------||
"Daaaaamn yoooou.."
G|-------------------------------------------|
D|-------------------------------------------|
A|-------------------------------------------|
E|7777777/10101010101010---------------------|

After that the song repeats. On the end part of the second go around-"now you"(etc.)-it
just repeats the seven slidy ten part until it gets to:
"Daaamn yooooooouuuuuuuAHHHHHHHHHH!!!!"
2:44 - END
G|-------------------------||
D|-------------------------||
A|---2---------------------||
E|-3--3-2-1-0-1-2----------||
...The timing starts to slow down gradually at about 2:53 until ending on the final note 
at 3:14.
E|-3*----------------------end---|

Want some lyrics?!?!?!
Nirvana: Mr. Moustache lyrics.

Fill me in on your new vision
Wake me up with indecision
Help me trust your mighty wisdom
Yes I eat cow - I am not proud.
Show me how you question, questions
Lead the way to my temptation
Take my hand and give it cleaning
As I eat cow - I am not proud.
Easy in an easy chair
Poop as hard as rock
I don't like you anyway--
Seal it in a box
Now
You
Damn
You
Fill me in on your new vision
Wake me up with indecision
Help me trust your mighty wisdom
Yes I eat cow - I am not proud.
Show me how you question, question
Lead the way to my gestation
Take my hand and give it cleaning
Yes I eat cow - I am not proud.
Easy in an easy chair
Poop as hard as rock
I don't like you anyway--
Seal it in a box
Now You
Damn You
Now You
Damn You
Now You
Damn You

*Questions? Comments? Compliments? Any time day or night I never sleep.
brian.kocianjr@yahoo.com

            
            
Suggest correction
Creating personal tab
Creating personal tab
You can edit any tab online and save it as your Personal.

You can edit, replace or remove any tab part or add personal notes – all changes will be seen only by you.

Personal tabs can be accessed anytime from any device, even offline.
Learn more »
Give kudos to tab author, rate the tab!
1 2 3 4 5
comments
print report bad tab
guest
You may want to rate the tab now too:
select rating
Wanna post a correction for this tab? Suggest correction