Oops, an error
Loading. Please wait.

Mrs Butterworth Tab

version 2
version 2

Whole song

Interactive

by Nirvana
1,908 views 1 this week
3 commentsread comments
1 2 3 4 5
x 4
add to favorites
×
Save as Personal and add changes to this tab that will be seen only by you. Learn more ›
×
You can save this tab as Personal to edit and correct it or add notes. All changes will be seen only by you. Learn more »
save as personal
new!
launch autoscroll
font size
0
reset
how to read this tab
guitar tuner
Autoscroll
slow
fast
+/-
esc
set tempo
stop
Author
Difficulty
intermediate
Mrs. Butterworth
Nirvana
With the Lights Out

intro/verse
eb[-------------------o
Bb[-------------------o
Gb[-------------------o
Db[----2-----------3--o
Ab[----------------3--o
Eb[--0---5p3p0-0-0-1--o


chorus
     F5   Eb5    Bb5    B5
eb[--------------------------------o
Bb[--------------------------------o
Gb[-------9-9-9--4-4-4--5-5-5-5----o
Db[--4-4--9-9-9--4-4-4--5-5-5-5----o
Ab[--4-4--7-7-7--2-2-2--3-3-3-3----o
Eb[--2-2---------------------------o


Bass line for "I'm gonna open myself up a flee market"
Gb[-----------------o
Db[--------------3--o
Ab[-----------------o
Eb[--0-0-5-3-0-0----o

changes to this at "People will be paying top dollar"
Gb[-----------------o
Db[-----------------o
Ab[-----------------o
Eb[--0-0-0-0-0-0-0--o


Tuned a half-step down
Listen to song for timing and order
Suggest correction
comments
print report bad tab
3 comments total.
0 reply
kurt-dave_krist 1,194 Mar 21, 2006 11:05 AM

shouldn´t it be -1-----instead of ------ in the verse
-1----- -1----
-3----- -1----
-------- -3----

0 reply
NIrvana_267 10 May 26, 2006 04:47 PM

no

0 reply
NIrvana_267 10 May 26, 2006 04:48 PM

just no

guest
You may want to rate the tab now too:
select rating
Wanna post a correction for this tab? Suggest correction