Oops, an error
Loading. Please wait.

Nevermind album bass

version 2
version 2

Album

by Nirvana
223 views 6 this week
no commentswrite comment
1 2 3 4 5
2 more votes to show rating
add to favorites
×
Save as Personal and add changes to this tab that will be seen only by you. Learn more ›
×
You can save this tab as Personal to edit and correct it or add notes. All changes will be seen only by you. Learn more »
launch autoscroll
font size
0
reset
guitar tuner
edit
Autoscroll
slow
fast
+/-
esc
set tempo
stop
Author
Difficulty
intermediate
ALBUM = NEVERMIND, 1991.
ARTIST = NIRVANA.
BASSIST = KRIST NOVOSELIC.
DIFFICULTY = INTERMEDIATE.
TUNING = E-STANDARD (E-A-D-G), DROP-D (D-A-D-G), 1 STEP DOWN (D-G-C-F)


TRACK LISTING
1. SMELLS LIKE TEEN SPIRIT
2. IN BLOOM
3. COME AS YOU ARE
4. BREED
5. LITHIUM
6. POLLY
7. TERRITORIAL PISSINGS
8. DRAIN YOU
9. LOUNGE ACT
10. STAY AWAY
11. ON A PLAIN
12. SOMETHING IN THE WAY

1. SMELLS LIKE TEEN SPIRIT - E-STANDARD (E-A-D-G)


GUITAR INTRO - NO BASS (4 Measures)

INTRO                                                                    x3
G|--------------|---------------------------|-----------------------------|
D|--------------|o--------------------------|----------------------------o|
A|--------------|o--------------1--1---1/3--|----------------4--4---4-3\-o|
E|---------1/6\-|--1---1--1-----------------|--4---4--4-------------------|

G|---------------------------|-----------------------------|
D|---------------------------|-----------------------------|
A|---------------1--1---1/3--|------------------4-4-4-4-4\-|
E|--1---1--1-----------------|--4---4--4-------------------|

VERSE / PRE-CHORUS                                       x10
G|----------------------------|---------------------------|
D|o---------------------------|--------------------------o|
A|o--------------1--1--1--1/3-|--------------4--4--4--3\-o|
E|---1--1--1--1---------------|--4--4--4--4---------------|

CHORUS                                                       x6
G|----------------------------|------------------------------|
D|o---------------------------|-----------------------------o|
A|o---------------1--1---1/3--|-----------------4--4---4-3\-o|
E|--1---1--1------------------|--4---4--4--------------------|

BRIDGE                                                  x2
G|----------------------------|--------------------------|
D|o---------------------------|-------------------------o|
A|o---------------------------|--3----3--3--1--1--------o|
E|--1--1--0--1--2--2----------|-------------------4--3---|

VERSE 2 / PRE-CHORUS 2                                   x10
G|----------------------------|---------------------------|
D|o---------------------------|--------------------------o|
A|o--------------1--1--1--1/3-|--------------4--4--4--3\-o|
E|---1--1--1--1---------------|--4--4--4--4---------------|

CHORUS 2                                                     x6
G|----------------------------|------------------------------|
D|o---------------------------|-----------------------------o|
A|o---------------1--1---1/3--|-----------------4--4---4-3\-o|
E|--1---1--1------------------|--4---4--4--------------------|

BRIDGE 2                                                x2
G|----------------------------|--------------------------|
D|o---------------------------|-------------------------o|
A|o---------------------------|--3----3--3--1--1--------o|
E|--1--1--0--1--2--2----------|-------------------4--3---|

GUITAR SOLO                                                 x8
G|----------------------------|------------------------------|
D|o---------------------------|-----------------------------o|
A|o---------------1--1---1/3--|-----------------4--4---4-3\-o|
E|--1---1--1------------------|--4---4--4--------------------|

VERSE 2 / PRE-CHORUS 2                                   x10
G|----------------------------|---------------------------|
D|o---------------------------|--------------------------o|
A|o--------------1--1--1--1/3-|--------------4--4--4--3\-o|
E|---1--1--1--1---------------|--4--4--4--4---------------|

CHORUS 3 / OUTRO                                             x8
G|----------------------------|------------------------------|
D|o---------------------------|-----------------------------o|
A|o---------------1--1---1/3--|-----------------4--4---4-3\-o|
E|--1---1--1------------------|--4---4--4--------------------|

2. IN BLOOM - E-STANDARD (E-A-D-G)


INTRO
G|----------------------------|---------------------------|----------------------------|----------------|
D|----------------------------|---------------------------|----------------------------|----------------|
A|----------------------2-----|----------------------3----|----------------------2-----|----------------|
E|--6--6/10\3---3-3-2-3---3-2-|-1--1-1-3-4---4-4-3-4--4-5-|--6--6/10\3---3-3-2-3---3-2-|-1--1-1-3-4-----|
                                                                      x2
G|--------------------------------|-----------------------------------|
D|o-------------------------------|----------------------------------o|
A|o--1-1-1-1-1----1---------------|/6-6-6-6-6-6---6-2-2-2-2-0-0-0-0--o|
E|------------------2-2-2-2-2---2-|-----------------------------------|

VERSE                                                                x3
G|--------------------------------|----------------------------------|
D|o-------------------------------|-1-1-1-1-1----1------------------o|
A|o--1-1-1-1-1----1---------------|----------------2-2-2-2-0-0-0-0--o|
E|------------------2-2-2-2-2---2-|----------------------------------|

G|--------------------------------|-----------------------------------|
D|--------------------------------|-1-1-1-1-1----1--------------------|
A|---1-1-1-1-1----1---------------|----------------0-2-2-2-2/5-5-5-0--|
E|------------------2-2-2-2-2---2-|-----------------------------------|

CHORUS
G|-----------------------------|------------------------------|
D|o----------------------------|------------------------------|
A|o-1---1--1--3----------------|-1---1--1--3--------------1---|
E|---------------3--3-3--1---1-|---------------3--3-1---3---3-|

G|-----------------------------|------------------------------|
D|-----------------------------|------------------------------|
A|--1---1--1--3----------------|-1---1--1--3--------------1---|
E|---------------3--3-3--1---1-|---------------3--3-1---3---3-|
                                                             x2
G|----------------------6------|----------------------6-------|
D|-------------------------8\--|-------------------------8\--o|
A|-3--3-3-3--3/6--6-6----------|-3--3-3-3--3/6--6-6----------o|
E|-----------------------------|------------------------------|

POST-CHORUS
G|---------------------------|---------------------------|---------------------------|
D|---------------------------|---------------------------|---------------------------|
A|---------------------2-----|----------------------3----|---------------------2-----|
E|-6--6/10\3---3-3-2-3---3-2-|-1--1-1-3-4---4-4-3-4--4-5-|-6--6/10\3---3-3-2-3---3-2-|

G|------------------------------|
D|------------------------------|
A|------------------------------|
E|-1--1-1-3-4------4-4-4-5-(5)\-|

VERSE 2                                                              x3
G|--------------------------------|----------------------------------|
D|o-------------------------------|-1-1-1-1-1----1------------------o|
A|o--1-1-1-1-1----1---------------|----------------2-2-2-2-0-0-0-0--o|
E|------------------2-2-2-2-2---2-|----------------------------------|

G|--------------------------------|-----------------------------------|
D|--------------------------------|-1-1-1-1-1----1--------------------|
A|---1-1-1-1-1----1---------------|----------------0-2-2-2-2/5-5-5-0--|
E|------------------2-2-2-2-2---2-|-----------------------------------|

CHORUS 2
G|-----------------------------|------------------------------|
D|o----------------------------|------------------------------|
A|o-1---1--1--3----------------|-1---1--1--3--------------1---|
E|---------------3--3-3--1---1-|---------------3--3-1---3---3-|

G|-----------------------------|------------------------------|
D|-----------------------------|------------------------------|
A|--1---1--1--3----------------|-1---1--1--3--------------1---|
E|---------------3--3-3--1---1-|---------------3--3-1---3---3-|
                                                             x2
G|----------------------6------|----------------------6-------|
D|-------------------------8\--|-------------------------8\--o|
A|-3--3-3-3--3/6--6-6----------|-3--3-3-3--3/6--6-6----------o|
E|-----------------------------|------------------------------|

POST-CHORUS 2
G|---------------------------|---------------------------|---------------------------|
D|---------------------------|---------------------------|---------------------------|
A|---------------------2-----|----------------------3----|---------------------2-----|
E|-6--6/10\3---3-3-2-3---3-2-|-1--1-1-3-4---4-4-3-4--4-5-|-6--6/10\3---3-3-2-3---3-2-|

G|------------------------------|
D|------------------------------|
A|------------------------------|
E|-1--1-1-3-4------4-4-4-5-(5)\-|

SOLO                                                                x3
G|--------------------------------|----------------------------------|
D|o-------------------------------|-1-1-1-1-1----1------------------o|
A|o--1-1-1-1-1----1---------------|----------------2-2-2-2-0-0-0-0--o|
E|------------------2-2-2-2-2---2-|----------------------------------|

G|--------------------------------|-----------------------------------|
D|--------------------------------|-1-1-1-1-1----1--------------------|
A|---1-1-1-1-1----1---------------|----------------0-2-2-2-2/5-5-5-0--|
E|------------------2-2-2-2-2---2-|-----------------------------------|

CHORUS 3
G|-----------------------------|------------------------------|
D|-----------------------------|------------------------------|
A|--1---1--1--3----------------|-1---1--1--3--------------1---|
E|---------------3--3-3--1---1-|---------------3--3-1---3---3-|

G|-----------------------------|------------------------------|
D|-----------------------------|------------------------------|
A|--1---1--1--3----------------|-1---1--1--3--------------1---|
E|---------------3--3-3--1---1-|---------------3--3-1---3---3-|

G|----------------------6------|----------------------6-------|
D|-------------------------8\--|-------------------------8\---|
A|-3--3-3-3--3/6--6-6----------|-3--3-3-3--3/6--6-6-----------|
E|-----------------------------|------------------------------|

G|-----------------------------|------------------------------|
D|-----------------------------|------------------------------|
A|--1---1--1--3----------------|-1---1--1--3--------------1---|
E|---------------3--3-3--1---1-|---------------3--3-1---3---3-|

G|-----------------------------|------------------------------|
D|-----------------------------|------------------------------|
A|--1---1--1--3----------------|-1---1--1--3--------------1---|
E|---------------3--3-3--1---1-|---------------3--3-1---3---3-|

G|----------------------6------|----------------------6-------|
D|-------------------------8\--|-------------------------8\---|
A|-3--3-3-3--3/6--6-6----------|-3--3-3-3--3/6--6-6-----------|
E|-----------------------------|------------------------------|

G|----------------------6------|----------------------6-------|
D|-------------------------8\--|-------------------------8\---|
A|-3--3-3-3--3/6--6-6----------|-3--3-3-3--3/6--6-6-----------|
E|-----------------------------|------------------------------|

OUTRO
G|----------------------------|---------------------------|----------------------------|
D|----------------------------|---------------------------|----------------------------|
A|----------------------2-----|----------------------3----|----------------------2-----|
E|--6--6/10\3---3-3-2-3---3-2-|-1--1-1-3-4---4-4-3-4--4-5-|--6--6/10\3---3-3-2-3---3-2-|

G|-----------------------------|-----------------------------|
D|-----------------------------|-----------------------------|
A|-----------------------------|-----------------------------|
E|-1--1-1-3-4----4-4-4-5-5-4-5-|-6\--------------------------|

3. COME AS YOU ARE - 1 STEP DOWN (D-G-C-F)

GUITAR INTRO - No Bass

INTRO (LET RING)
F|---------------|----------------|-----------------|----------------|-----------------|
C|---------------|----7---7-------|---9-------9-----|----7---7-------|---9-------9-----|
G|---------7-7-8-|-9----9---9-9-8-|-7---7-7-----7-8-|-9----9---9-9-8-|-7---7-7-----7-8-|
D|---------------|----------------|-----------------|----------------|-----------------|

VERSE (LET RING)                     x8
F|-----------------|------------------|
C|o----7---7-------|---9-------9-----o|
G|o-9----9---9-9-8-|-7---7-7-----7-8-o|
D|-----------------|------------------|

PRE-CHORUS                            x2
F|-----------------|------------------|----------------|------------------|
C|o----------------|-----------------o|----------------|------------------|
G|o----------------|-----------------o|----------------|-------------7-8--|
D|--2--2-2-2-2-2-2-|-5-5-5-5-5-5-5-0--|-2--2-2-2-2-2-2-|-5-5-5-5-5-5------|

VERSE 2 (LET RING)                   x4
F|-----------------|------------------|
C|o----7---7-------|---9-------9-----o|
G|o-9----9---9-9-8-|-7---7-7-----7-8-o|
D|-----------------|------------------|

PRE-CHORUS 2                         x2
F|-----------------|------------------|----------------|------------------|
C|o----------------|-----------------o|----------------|------------------|
G|o----------------|-----------------o|----------------|-------------7-8--|
D|--2--2-2-2-2-2-2-|-5-5-5-5-5-5-5-0--|-2--2-2-2-2-2-2-|-5-5-5-5-5-5------|

CHORUS                                 x3
F|------------------|------------------|
C|o-----------------|-----------------o|
G|o-2-2-2-2-2-2-2-4-|-5-5-5-5-5-5-3-0-o|
D|------------------|------------------|

F|-----------------|-----------------|
C|-----------------|-----------------|
G|-2-2-2-2-2-2-2-4-|-5-5-5-5-5-7-7-8-|
D|-----------------|-----------------|

PRE-SOLO (LET RING)                   x2
F|-----------------|------------------|
C|o----7---7-------|---9-------9-----o|
G|o-9----9---9-9-8-|-7---7-7-----7-8-o|
D|-----------------|------------------|

SOLO (LET RING)                      x8
F|-----------------|------------------|
C|o----7---7-------|---9-------9-----o|
G|o-9----9---9-9-8-|-7---7-7-----7-8-o|
D|-----------------|------------------|

PRE-CHORUS 3                         x4
F|-----------------|------------------|
C|o----------------|-----------------o|
G|o----------------|-----------------o|
D|--2--2-2-2-2-2-2-|-5-5-5-5-5-5-5-0--|

CHORUS 2                               x5
F|------------------|------------------|
C|o-----------------|-----------------o|
G|o-2-2-2-2-2-2-2-4-|-5-5-5-5-5-5-3-0-o|
D|------------------|------------------|

F|-----------------|-----------------|
C|-----------------|-----------------|
G|-2-2-2-2-2-2-2-4-|-5-5-5-5-5-7-7-8-|
D|-----------------|-----------------|

OUTRO (LET RING)                      x4
F|-----------------|------------------|
C|o----7---7-------|---9-------9-----o|
G|o-9----9---9-9-8-|-7---7-7-----7-8-o|
D|-----------------|------------------|

F|-----------------|
C|-----------------|
G|-9---------------|
D|-----------------|


4. BREED - E-STANDARD (E-A-D-G)

GUITAR INTRO - No Bass

DRUM INTRO - No Bass

BASS INTRO / VERSE        x28
G|-------------------------|
D|o-----------------------o|
A|o-----------------------o|
E|---2--2--0--2---/5b---0--|

CHORUS
G|-------------------------|----------------------|-------------------------|----------------------|
D|-------------------------|----------------------|-------------------------|----------------3-----|
A|---5---5-5---------------|--3-3-3---2---2-2-0---|---5---5-5---------------|--3-3-3---2---2---0---|
E|--------------5---5-5----|----------------------|--------------5---5-5----|----------------------|

G|-------------------------|----------------------|-------------------------|----------------------|
D|-------------------------|----------------------|-------------------------|----------------------|
A|---5---5-5---------------|--3-3-3---2---2-2-0---|---5---5-5---------------|--3-3-3---2---2-2-0---|
E|--------------5---5-5----|----------------------|--------------5---5-5----|----------------------|

VERSE 2                   x15
G|-------------------------|
D|o-----------------------o|
A|o-----------------------o|
E|---2--2--0--2---/5b---0--|

CHORUS 2
G|-------------------------|----------------------|-------------------------|----------------------|
D|-------------------------|----------------------|-------------------------|----------------3-----|
A|---5---5-5---------------|--3-3-3---2---2-2-0---|---5---5-5---------------|--3-3-3---2---2---0---|
E|--------------5---5-5----|----------------------|--------------5---5-5----|----------------------|

G|-------------------------|----------------------|-------------------------|----------------------|
D|-------------------------|----------------------|-------------------------|----------------------|
A|---5---5-5---------------|--3-3-3---2---2-2-0---|---5---5-5---------------|--3-3-3---2---2-2-0---|
E|--------------5---5-5----|----------------------|--------------5---5-5----|----------------------|

SOLO                     x15
G|-------------------------|
D|o-----------------------o|
A|o-----------------------o|
E|---2--2--0--2---/5b---0--|

CHORUS 3
G|-------------------------|----------------------|-------------------------|----------------------|
D|-------------------------|----------------------|-------------------------|----------------3-----|
A|---5---5-5---------------|--3-3-3---2---2-2-0---|---5---5-5---------------|--3-3-3---2---2---0---|
E|--------------5---5-5----|----------------------|--------------5---5-5----|----------------------|

G|-------------------------|----------------------|-------------------------|----------------------|
D|-------------------------|----------------------|-------------------------|----------------------|
A|---5---5-5---------------|--3-3-3---2---2-2-0---|---5---5-5---------------|--3-3-3---2---2-2-0---|
E|--------------5---5-5----|----------------------|--------------5---5-5----|----------------------|

OUTRO                     x9
G|-------------------------|
D|o-----------------------o|
A|o-----------------------o|
E|---2--2--0--2---/5b---0--|


5. LITHIUM - 1 STEP DOWN (D-G-C-F)


INTRO - No Bass

VERSE - No Bass

CHORUS
   x3
F|-----------------|------------------|-----------------|-----------------|------------------|
C|-----------------|o-----------------|-------------7---|-/5--5-5-7-7-7\--|---------0-0-0-0-o|
G|-----------------|o-----------------|-4-----4-0-0---0-|-----------------|-2-2-2-2/--------o|
D|------------12\--|--0----0--4-----0-|-----------------|-----------------|------------------|

VERSE 2                                                                      x3
F|------------------|------------------|------------------|------------------|
C|o-----------------|------------------|-5----5--7-----7\-|--------0-0-0-0--o|
G|o-7----7--6----6--|-4----4--0-----0--|------------------|-2---2/----------o|
D|------------------|------------------|------------------|------------------|

F|------------------|------------------|------------------|------------------|
C|------------------|------------------|-----5-------7----|--------0-0-0-0---|
G|--7----7--6----6--|-4----4--2--0-----|-3-3---3-5-5---5--|-2-2-2/-----------|
D|------------------|----------------3-|------------------|------------------|

CHORUS 2
F|------------------|------------------|------------------|------------------|
C|o-----------------|------------------|-5----5--7-----7\-|--------0-0-0-0--o|
G|o-7----7--6----6--|-4----4--0-----0--|------------------|-2---2/----------o|
D|------------------|------------------|------------------|------------------|

BRIDGE                                                                        x4
F|-------------------|------------------|------------------|-------------------|
C|o------------------|----------------5-|-7--7-7--5---5----|------------------o|
G|o-0---0-0-3---3-3--|-0---0-3----5-7---|-----------7---7--|---6-5-0-3-0-3----o|
D|-------------------|------------------|------------------|-------------------|

F|-------------------|------------------|
C|-------------------|------------------|
G|-5-5-5-5-5-5-5-5-5-|-2-2-2-2-2--------|
D|-------------------|-----------0-3^-0-|

INTERLUDE
F|------------------|------------------|------------------|-----------------|
C|------------------|------------------|-5----5--7-----7\-|--------0-0-0-0--|
G|--7----7--6----6--|-4----4--0-----0--|------------------|-2---2/----------|
D|------------------|-----------3-4----|------------------|-----------------|

VERSE 3                                                                      x3
F|------------------|------------------|------------------|------------------|
C|o-----------------|------------------|-5----5--7-----7\-|--------0-0-0-0--o|
G|o-7----7--6----6--|-4----4--0-----0--|------------------|-2---2/----------o|
D|------------------|------------------|------------------|------------------|

F|------------------|------------------|------------------|------------------|
C|------------------|------------------|-----5-------7----|--------0-0-0-0---|
G|--7----7--6----6--|-4----4--2--0-----|-3-3---3-5-5---5--|-2-2-2/-----------|
D|------------------|----------------3-|------------------|------------------|

CHORUS 3
   x3
F|-----------------|------------------|-----------------|-----------------|------------------|
C|-----------------|o-----------------|-------------7---|-/5--5-5-7-7-7\--|---------0-0-0-0-o|
G|-----------------|o-----------------|-4-----4-0-0---0-|-----------------|-2-2-2-2/--------o|
D|------------12\--|--0----0--4-----0-|-----------------|-----------------|------------------|

BRIDGE 2                                                                       x2
F|-------------------|------------------|------------------|-------------------|
C|o------------------|----------------5-|-7--7-7--5---5----|------------------o|
G|o-0---0-0-3---3-3--|-0---0-3----5-7---|-----------7---7--|---6-5-0-3-0-3----o|
D|-------------------|------------------|------------------|-------------------|

F|-------------------|------------------|------------------|---5---------------|
C|-------------------|----------------5-|-7--7-7--5---5-7--|-----7-6-5---------|
G|--0---0-0-3---3-3--|-0---0-3----5-7---|-----------7------|-----------7-6-5---|
D|-------------------|------------------|------------------|-------------------|

F|-------------------|------------------|------------------|-------------------|
C|-------------------|----------------5-|-7--7-7--5---5----|-------------------|
G|--0---0-0-3---3-3--|-0---0-3----5-7---|-----------7---7--|---6-5-0-3-0-3-----|
D|-------------------|------------------|------------------|-------------------|

OUTRO
F|-------------------|------------------|------------------|
C|-------------------|------------------|------------------|
G|-5-5-5-5-5-5-5-5-5-|-2-2-2-2-2--------|------------------|
D|-------------------|-------------0-3^-|-0----------------|

6. POLLY - E-STANDARD (E-A-D-G)


INTRO - No Bass

VERSE - No Bass

CHORUS                                   x8
G|--------------------|-------------------|
D|o-------------------|------------------o|
A|o--5--5---3-3-3-2---|--------1--1-1-0--o|
E|--------------------|--3--3-------------|

VERSE                                     x6
G|--------------------|--------------------|
D|o-------------------|-------------------o|
A|o-------------------|-/5--5---3--3-3-2--o|
E|---0----0-3-3----3--|--------------------|

CHORUS 2                                 x8
G|--------------------|-------------------|
D|o-------------------|------------------o|
A|o--5--5---3-3-3-2---|--------1--1-1-0--o|
E|--------------------|--3--3-------------|

INTERLUDE / VERSE                         x6
G|--------------------|--------------------|
D|o-------------------|-------------------o|
A|o-------------------|-/5--5---3--3-3-2--o|
E|---0----0-3-3----3--|--------------------|

CHORUS 3                                 x8
G|--------------------|-------------------|
D|o-------------------|------------------o|
A|o--5--5---3-3-3-2---|--------1--1-1-0--o|
E|--------------------|--3--3-------------|

OUTRO
G|--------------------|
D|--------------------|
A|--------------------|
E|-0------------------|


7. TERRITORIAL PISSINGS - E-STANDARD (E-A-D-G)


'COME ON PEOPLE NOW...' - No Bass

GUITAR INTRO - No Bass

BASS & DRUMS INTRO
G|--------------------|--------------------|--------------------|--------------------|
D|--------------------|--------------------|--------------------|--------------------|
A|-0------------------|/8------------------|-5------------------|---------5--5-5-5-5-|
E|--------------------|--------------------|--------------------|--------------------|

VERSE                                                                     x2
G|------------------|-----------------|-----------------|------------------|
D|o-----------------|-----------------|-----------------|-----------------o|
A|o-0-0-0-0-0-0-0-0-|-8-8-8-8-8-8-8-8-|-5-5-5-5-5-5-5-5-|-5-5-5-5-5-5-5-5-o|
E|------------------|-----------------|-----------------|------------------|

CHORUS                                                                    x2
G|------------------|-----------------|-----------------|------------------|
D|o-----------------|-----------------|-----------------|-----------------o|
A|o-0-0-0-0-0-0-0-0-|-8-8-8-8-8-8-8-8-|-5-5---5-5-5-5---|-5-5-5---5-5-5-5-o|
E|------------------|-----------------|-----5---------5-|-------5----------|

VERSE 2                                                                   x2
G|------------------|-----------------|-----------------|------------------|
D|o-----------------|-----------------|-----------------|-----------------o|
A|o-0-0-0-0-0-0-0-0-|-8-8-8-8-8-8-8-8-|-5-5-5-5-5-5-5-5-|-5-5-5-5-5-5-5-5-o|
E|------------------|-----------------|-----------------|------------------|

CHORUS 2                                                                  x4
G|------------------|-----------------|-----------------|------------------|
D|o-----------------|-----------------|-----------------|-----------------o|
A|o-0-0-0-0-0-0-0-0-|-8-8-8-8-8-8-8-8-|-5-5---5-5-5-5---|-5-5-5---5-5-5-5-o|
E|------------------|-----------------|-----5---------5-|-------5----------|

BRIDGE                                                                    x2
G|------------------|-----------------|-----------------|------------------|
D|o-----------------|-----------------|-----------------|-----------------o|
A|o-0-0-0-0-0-0-0-0-|-8-8-8-8-8-8-8-8-|-5-5-5-5-5-5-5-5-|-5-5-5-5-5-5-5-5-o|
E|------------------|-----------------|-----------------|------------------|

VERSE 3
G|------------------|-----------------|-----------------|------------------|
D|------------------|-----------------|-----------------|------------------|
A|--0-0-0-0-0-0-0-0-|-8-8-8-8-8-8-8-8-|-5-5-5-5-5-5-5-5-|-5-5-5-5-5-5-5-5--|
E|------------------|-----------------|-----------------|------------------|

G|------------------|-----------------|-----------------|------------------|
D|------------------|-----------------|-----------------|------------------|
A|--0-0-0-0-0-0-0-0-|-8-8-8-8-8-8-8-8-|-5-5-5-5-5-5-5-5-|-5-5-5-5-5--------|
E|------------------|-----------------|-----------------|------------------|

CHORUS 3 / OUTRO                                                           x8
G|------------------|-----------------|-----------------|------------------|
D|o-----------------|-----------------|-----------------|-----------------o|
A|o-0-0-0-0-0-0-0-0-|-8-8-8-8-8-8-8-8-|-5-5---5-5-5-5---|-5-5-5---5-5-5-5-o|
E|------------------|-----------------|-----5---------5-|-------5----------|

8. DRAIN YOU - 1 STEP DOWN (D-G-C-F)


INTRO - No Bass

VERSE                                                   x6
F|-----------------|------------------|------------------|
C|-----------------|o-----------------|-----------------o|
G|-----------4-4-0-|o--2---2/6-6-6-0--|---------4-4-4-0-o|
D|-----------------|------------------|--4---4-----------|

CHORUS                                                  x3
F|-----------------|------------------|------------------|------------------|------------------|
C|-----------------|o-----------------|-----------------o|------------------|------------------|
G|-----------------|o-4-4-4-4-4-4-4-0-|-----------------o|-2-------0--------|------------------|
D|-2---2-2-0---0-0-|------------------|-0-0-0-0-0-0-0-0--|------------------|-4----------------|

VERSE 2                                                 x6
F|-----------------|------------------|------------------|
C|-----------------|o-----------------|-----------------o|
G|-----------------|o--2---2/6-6-6-0--|---------4-4-4-0-o|
D|-----------------|------------------|--4---4-----------|

CHORUS                                                  x3
F|-----------------|------------------|------------------|------------------|
C|-----------------|o-----------------|-----------------o|------------------|
G|-----------------|o-4-4-4-4-4-4-4-0-|-----------------o|-2-------0--------|
D|-2---2-2-0---0-0-|------------------|-0-0-0-0-0-0-0-0--|------------------|

BRIDGE                                 x30
F|------------------|-------------------|------------------|
C|------------------|o-----------------o|------------------|
G|------------------|o-----------------o|------------------|
D|-4---4-4-4-4-4-4--|--4-4-4-4-4-4-4-4--|-4-4-4-4-4-4-4/16-|

INTERLUDE                             x2
F|------------------|------------------|
C|o-----------------|-----------------o|
G|o--2---2/6-6-6-0--|---------4-4-4-0-o|
D|------------------|--4---4-----------|

VERSE 2                               x6
F|------------------|------------------|
C|o-----------------|-----------------o|
G|o--2---2/6-6-6-0--|---------4-4-4-0-o|
D|------------------|--4---4-----------|

CHORUS                                                  x6
F|-----------------|------------------|------------------|------------------|------------------|
C|-----------------|o-----------------|-----------------o|------------------|------------------|
G|-----------------|o-4-4-4-4-4-4-4-0-|-----------------o|-2-------0--------|------------------|
D|-2---2-2-0---0-0-|------------------|-0-0-0-0-0-0-0-0--|------------------|-4----------------|


9. LOUNGE ACT - E-STANDARD (E-A-D-G)


INTRO                                                         x2
G|----------------|--------------|--------------|--------------|
D|o-------4-------|--------------|--------------|-------------o|
A|o-----5---------|--------------|---5-4--------|-------------o|
E|--/7------2-3-2-|-3/10---8-7-5-|-7------2-3-2-|-3/8---7-5-3--|

VERSE                                                         x2
G|----------------|--------------|--------------|--------------|
D|o-------4-------|--------------|--------------|-------------o|
A|o-----5---------|--------------|---5-4--------|-------------o|
E|--/7------2-3-2-|-3/10---8-7-5-|-7------2-3-2-|-3/8---7-5-3--|

G|----------------|--------------|
D|--------4-------|--------------|
A|------5---------|--------------|
E|--/7------2-3-2-|-3/7---5-5-5--|

CHORUS
G|----------------|----7---------|--------------|-----------------|
D|--------5h7-5---|--------------|--------------|-----7-----------|
A|--------------7-|--5-----------|-5-7--7-------|-4-5---5---------|
E|--0--5----------|-------3--5-7-|--------5--5--|---------3--0-3/-|

G|----------------|--------------|--------------|------------------|
D|--------5h7-5---|----7---------|--------------|-----7---5--5-5---|
A|--------------7-|--5-----------|-5-7--7-------|-4-5---5--------0-|
E|--0--5----------|-------3--5-7-|--------5--5--|------------------|

POST-CHORUS                                                          x2
G|----------------|----------------|----------------|-----------------|
D|o---------------|----------------|-----7---7--7-7-|-6-6-6-5---5/9\-o|
A|o---------------|----------------|-0--------------|----------------o|
E|---5--5--5--5-5-|-4-4-4-3--3-3-3-|----------------|-----------------|

VERSE 2                                                       x2
G|----------------|--------------|--------------|--------------|
D|o-------4-------|--------------|--------------|-------------o|
A|o-----5---------|--------------|---5-4--------|-------------o|
E|--/7------2-3-2-|-3/10---8-7-5-|-7------2-3-2-|-3/8---7-5-3--|

G|----------------|--------------|
D|--------4-------|--------------|
A|------5---------|--------------|
E|--/7------2-3-2-|-3/7---5-5-5--|

CHORUS 2
G|----------------|----7---------|--------------|-----------------|
D|--------5h7-5---|--------------|--------------|-----7-----------|
A|--------------7-|--5-----------|-5-7--7-------|-4-5---5---------|
E|--0--5----------|-------3--5-7-|--------5--5--|---------3--0-3/-|

G|----------------|--------------|--------------|------------------|
D|--------5h7-5---|----7---------|--------------|-----7---5--5-5---|
A|--------------7-|--5-----------|-5-7--7-------|-4-5---5--------0-|
E|--0--5----------|-------3--5-7-|--------5--5--|------------------|

POST-CHORUS                                                          x2
G|----------------|----------------|----------------|-----------------|
D|o---------------|----------------|-----7---7--7-7-|-6-6-6-5---5/9\-o|
A|o---------------|----------------|-0--------------|----------------o|
E|---5--5--5--5-5-|-4-4-4-3--3-3-3-|----------------|-----------------|

BRIDGE
G|---------------|--------------|--------------|--------------|
D|-------4-------|--------------|--------------|--------------|
A|-----5---------|--------------|---5-4--------|--------------|
E|-/7------2-3-2-|-3/10---8-7-5-|-7------2-3-2-|-3/8---7-5-3--|

VERSE 3                                                       x2
G|----------------|--------------|--------------|--------------|
D|o-------4-------|--------------|--------------|-------------o|
A|o-----5---------|--------------|---5-4--------|-------------o|
E|--/7------2-3-2-|-3/10---8-7-5-|-7------2-3-2-|-3/8---7-5-3--|

G|----------------|--------------|
D|--------4-------|--------------|
A|------5---------|--------------|
E|--/7------2-3-2-|-3/7---5-5-5--|

CHORUS 3 / OUTRO
G|-----------------|----7---------|--------------|-----------------|
D|o--------5h7-5---|--------------|--------------|-----7-----------|
A|o--------------7-|--5-----------|-5-7--7-------|-4-5---5---------|
E|---0--5----------|-------3--5-7-|--------5--5--|---------3--0-3/-|
                                                                    x2
G|----------------|--------------|--------------|-------------------|
D|--------5h7-5---|----7---------|--------------|-----7---5--5-5---o|
A|--------------7-|--5-----------|-5-7--7-------|-4-5---5--------0-o|
E|--0--5----------|-------3--5-7-|--------5--5--|-------------------|
                                                                     x2
G|----------------|----------------|----------------|-----------------|
D|o---------------|----------------|-----7---7--7-7-|-6-6-6-5---5/9\-o|
A|o---------------|----------------|-0--------------|----------------o|
E|---5--5--5--5-5-|-4-4-4-3--3-3-3-|----------------|-----------------|

END ON
G|---------------|----------------|
D|---------------|----------------|
A|-0-------------|----------------|
E|---------------|----------------|


10. STAY AWAY  - E-STANDARD (E-A-D-G)


DRUM INTRO - No Bass

INTRO / VERSE                           x11
G|-------------------|-------------------|
D|o-0--0--0h3--------|-3--3-------------o|
A|o-----------2-2--2-|--------3-3-0-3-4-o|
E|-------------------|-------------------|

CHORUS                                  x4
G|-------------------|-------------------|
D|o-0-0-3-------2h3--|-3-3-3-3-3--------o|
A|o-------2-2-2------|-----------0-3-4--o|
E|-------------------|-------------------|

VERSE 2                                 x2
G|-------------------|-------------------|
D|o-0--0--0h3--------|-3--3-------------o|
A|o-----------2-2--2-|--------3-3-0-3-4-o|
E|-------------------|-------------------|

CHORUS 2                                x4
G|-------------------|-------------------|
D|o-0-0-3-------2h3--|-3-3-3-3-3--------o|
A|o-------2-2-2------|-----------0-3-4--o|
E|-------------------|-------------------|

BRIDGE
G|-----------------|------------------|-------------------|-------------------|
D|--0--0--0-----0--|-0-3-0------------|--------------4--4-|------4------------|
A|-----------3-----|-------4-3-0------|-------4-----------|----4-------4--0---|
E|-----------------|-------------4-3--|-2--2------2-------|-2-----------------|

G|-----------------|------------------|-------------------|-------------------|------------------|
D|--0--0--0-----0--|-0-3-0------------|--3-0-3-5^-5^-3-0--|-------4-----------|-4-4-4-4-4-4-4----|
A|-----------3-----|-------4-3-0------|-------------------|-------------4--1--|---------------0--|
E|-----------------|-------------4-3--|-------------------|-2--2------2-------|------------------|

CHORUS 3                                x4
G|-------------------|-------------------|
D|o-0-0-3-------2h3--|-3-3-3-3-3--------o|
A|o-------2-2-2------|-----------0-3-4--o|
E|-------------------|-------------------|

VERSE 3                                 x2
G|-------------------|-------------------|
D|o-0--0--0h3--------|-3--3-------------o|
A|o-----------2-2--2-|--------3-3-0-3-4-o|
E|-------------------|-------------------|

CHORUS 4                                x4
G|-------------------|-------------------|
D|o-0-0-3-------2h3--|-3-3-3-3-3--------o|
A|o-------2-2-2------|-----------0-3-4--o|
E|-------------------|-------------------|

BRIDGE 2
G|-----------------|------------------|-------------------|-------------------|
D|--0--0--0-----0--|-0-3-0------------|--------------4--4-|------4------------|
A|-----------3-----|-------4-3-0------|-------4-----------|----4-------4--0---|
E|-----------------|-------------4-3--|-2--2------2-------|-2-----------------|

G|-----------------|------------------|-------------------|-------------------|------------------|
D|--0--0--0-----0--|-0-3-0------------|--3-0-3-5^-5^-3-0--|-------4-----------|-4-4-4-4-4-4-4----|
A|-----------3-----|-------4-3-0------|-------------------|-------------4--1--|---------------0--|
E|-----------------|-------------4-3--|-------------------|-2--2------2-------|------------------|

CHORUS 5                                x4
G|-------------------|-------------------|
D|o-0-0-3-------2h3--|-3-3-3-3-3--------o|
A|o-------2-2-2------|-----------0-3-4--o|
E|-------------------|-------------------|

INTERLUDE                               x4
G|-------------------|-------------------|
D|o-0--0--0h3--------|-3--3-------------o|
A|o-----------2-2--2-|--------3-3-0-3-4-o|
E|-------------------|-------------------|

CHORUS 6                                x6
G|-------------------|-------------------|
D|o-0-0-3-------2h3--|-3-3-3-3-3--------o|
A|o-------2-2-2------|-----------0-3-4--o|
E|-------------------|-------------------|

OUTRO                 x7
G|---------------------|-------------------|
D|o--0-0-0-0-0-0-0-0--o|-0-----------------|
A|o-------------------o|-------------------|
E|---------------------|-------------------|


11. ON A PLAIN - DROP-D (D-A-D-G)

INTRO - No Bass

VERSE
G|--------------------|-----------------|-----------------|-----------------|-----------------|
D|o-------------------|-----------------|---------5---5-5-|-3-3-5-3-2-3-2-0-|-----------------|
A|o-5---5-5-----------|-----------------|-5--5-5----5-----|-----------------|-5--5-5-3-3-3-3--|
D|-----------5---5-5--|-3-3-5-3-2-3-2-0-|-----------------|-----------------|-----------------|
                                                        x2
G|------------------|-----------------|------------------|
D|------------------|-----------------|-----------------o|
A|-2---2-2-0-0-2-3--|-5--5-5----------|-----------------o|
D|------------------|---------5--5-5--|-5-5-5-5-2-3-2-0--|

CHORUS                                                                    x2
G|------------------|-----------------|-----------------|------------------|
D|o-----------------|-----------------|-----------------|-----------------o|
A|o-5-5-5-5---------|-----------------|-5-5-5-5---------|-----------------o|
D|----------5-5-5-5-|-3-3-3-3-3-3-3-0-|---------5-5-5-5-|-8-8-8-8-8-8-8-0--|

VERSE 2
G|--------------------|-----------------|-----------------|-----------------|-----------------|
D|o-------------------|-----------------|---------5---5-5-|-3-3-5-3-2-3-2-0-|-----------------|
A|o-5---5-5-----------|-----------------|-5--5-5----5-----|-----------------|-5--5-5-3-3-3-3--|
D|-----------5---5-5--|-3-3-5-3-2-3-2-0-|-----------------|-----------------|-----------------|
                                                        x2
G|------------------|-----------------|------------------|
D|------------------|-----------------|-----------------o|
A|-2---2-2-0-0-2-3--|-5--5-5----------|-----------------o|
D|------------------|---------5--5-5--|-5-5-5-5-2-3-2-0--|

CHORUS 2                                                                  x2
G|------------------|-----------------|-----------------|------------------|
D|o-----------------|-----------------|-----------------|-----------------o|
A|o-5-5-5-5---------|-----------------|-5-5-5-5---------|-----------------o|
D|----------5-5-5-5-|-3-3-3-3-3-3-3-0-|---------5-5-5-5-|-8-8-8-8-8-8-8-0--|

BRIDGE
G|-----------------|-----------------|----------------|-------------------|
D|-----------------|-----------------|----------------|-------------------|
A|-----------------|-----------------|--0---0-0---0-0-|-------------------|
D|--3---3-3---5-3--|-2---2-2--3-2--0-|----------------|--5-5-5-5-5-5-5-0--|

G|-----------------|-----------------|----------------|-------------------|
D|-----------------|-----------------|-------2--------|-------------------|
A|-----------------|-----------------|--0--0----0-0-0-|-------------------|
D|--3---3-3---5-3--|-2---2-2--3-2--0-|----------------|--5-5-5-5-5-5-5-0--|

G|-----------------|-----------------|----------------|-------------------|
D|-----------------|-----------------|----------------|-------------------|
A|-----------------|-----------------|--0---0-0---0-0-|-------------------|
D|--3---3-3---5-3--|-2---2-2--3-2--0-|----------------|--5-5-5-5-5-5-5-0--|

G|-----------------|-----------------|----------------|-------------------|
D|-----------------|-----------------|----------------|-------------------|
A|-----------------|-----------------|--0---0-0---0-0-|-------------------|
D|--3---3-3---5-3--|-2---2-2--3-2--0-|----------------|--5-5-5-5-5-3-2-0--|

VERSE 3
G|--------------------|-----------------|-----------------|-----------------|-----------------|
D|o-------------------|-----------------|---------5---5-5-|-3-3-5-3-2-3-2-0-|-----------------|
A|o-5---5-5-----------|-----------------|-5--5-5----5-----|-----------------|-5--5-5-3-3-3-3--|
D|-----------5---5-5--|-3-3-5-3-2-3-2-0-|-----------------|-----------------|-----------------|
                                                        x2
G|------------------|-----------------|------------------|
D|------------------|-----------------|-----------------o|
A|-2---2-2-0-0-2-3--|-5--5-5----------|-----------------o|
D|------------------|---------5--5-5--|-5-5-5-5-2-3-2-0--|

CHORUS 3 / OUTRO (REPEAT UNTIL SONG FADES)
G|------------------|-----------------|-----------------|------------------|
D|o-----------------|-----------------|-----------------|-----------------o|
A|o-5-5-5-5---------|-----------------|-5-5-5-5---------|-----------------o|
D|----------5-5-5-5-|-3-3-3-3-3-3-3-0-|---------5-5-5-5-|-8-8-8-8-8-8-8-0--|

12. SOMETHING IN THE WAY - 1 STEP DOWN + DROP D (C-G-C-F)

INTRO - No Bass

VERSE - No Bass

CHORUS
F|---------------|--------------|--------------|--------------|
C|o--------------|--------------|--------------|--------------|
G|o--------------|--5-----------|--------------|--5-----7-----|
C|---4-----7-----|--------7-----|--4-----7-----|--------------|
                                                              x3
F|---------------|--------------|--------------|--------------|
C|---------------|--------------|--------------|-------------o|
G|---------------|--5-----------|--------------|--5-------5--o|
C|---4-----7-----|--------7-----|--4-----7-----|--------------|

VERSE 2 - No Bass

CHORUS 2
F|---------------|--------------|--------------|--------------|
C|o--------------|--------------|--------------|--------------|
G|o--------------|--5-----------|--------------|--5-----7-----|
C|---4-----7-----|--------7-----|--4-----7-----|--------------|
                                                              x4
F|---------------|--------------|--------------|--------------|
C|---------------|--------------|--------------|-------------o|
G|---------------|--5-----------|--------------|--5-------5--o|
C|---4-----7-----|--------7-----|--4-----7-----|--------------|


- Anything not quite right? Make sure to leave a correction below!


************************************

| (n) Ghost note
| h   Hammer-on
| b   Bend
| /   Slide up
| \   Slide down

************************************

            
            
Suggest correction
Creating personal tab
Creating personal tab
You can edit any tab online and save it as your Personal.

You can edit, replace or remove any tab part or add personal notes – all changes will be seen only by you.

Personal tabs can be accessed anytime from any device, even offline.
Learn more »
Give kudos to tab author, rate the tab!
1 2 3 4 5
comments
print report bad tab
guest
You may want to rate the tab now too:
select rating
Wanna post a correction for this tab? Suggest correction