Oops, an error
Loading. Please wait.

Nevermind Tab

version 3
version 3
10,713 views 21 this week
3 commentsread comments
1 2 3 4 5
accurate
x 4
add to favorites
launch autoscroll
font size
0
reset
how to read this tab
guitar tuner
Tab Pro tools
  • play this tab
  • loop segment
  • change instrument
  • show fretboard
  • metronome
×
Best way to learn
"Nevermind"
Autoscroll
slow
fast
+/-
esc
set tempo
stop
Contributor
Nevermind


Smells Like Teen Spirit

Note: kurt uses an 'electro harmonix polychorus to get the
watery sound on the verse and on come as you are and
territorial pissings. these only set you back about £170

--------------x-x-x-x------------------------x-x-x-x----------
--------------x-x-x-x------------------------x-x-x-x---6--6--6
--------------x-x-x-x--3---3-3---------------x-x-x-x---6--6--6
--3----3-3----x-x-x-x--3---3-3-----6----6-6--x-x-x-x---4--4--4
--3----3-3-------------1---1-1-----6----6-6-------------------
--1----1-1-------------------------4----4-4-------------------
              mute---                        mute----
(tip lay yer fingers on ya fretting hand straight across yer strings so that
they dont ring when yer getting that lil 'ticka ticka du du')





verse
----------|---------|----------|---------|----------
------6---|-----6---|------6---|-----6---|----6-----
-----5----|----5----|-----5----|----5----|---5------
----------|---------|----------|---------|----------
----------|---------|----------|---------|----------
----------|---------|----------|---------|----------


Hello hello how low........
(distortion)
------------------------------------------------
------6--6--6--6--6--6--6--6--6-----------------
-----5--5--5--5--5--5--5--5--5------------------
------------------------------------------------
------------------------------------------------
------------------------------------------------


chorus
------------------------------------------------
-----------------------------------------6--6--6
----------------3---3-3------------------6--6--6
--3----3-3------3---3-3-----6----6-6-----4--4--4
--3----3-3------1---1-1-----6----6-6------------
--1----1-1------------------4----4-4------------



break         Yay.....
------------------------------------------------
------------------------------------------------
---------------3b-------------------------------
--3-3-3--4-4--------------3-3-3-4-4---8-8--6-6--
--3-3-3--4-4--------------3-3-3-4-4---8-8--6-6--
--1-1-1--2-2--------------1-1-1-2-2---6-6--4-4--


Solo
(with effect)
-------------------------------------------------
-------------------------------------------------
------8--10-----8--8b--8--6-5--3--1---3---3b--1-0
--10----------6----------------------------------
-------------------------------------------------
-------------------------------------------------

-------------------------------------------------------------------------
-------------------------------------------------------------------------
------8--10-----8--8b--8--6-5--3--1---3---3b--1-0---1-0--1-0--1-0--1-0---
--10----------6---------------------------------------------------------3
-------------------------------------------------------------------------
-------------------------------------------------------------------------

   *let ring and feedback
------------------------------------------------
------------------------------------------------
------------------------------------------------
--(3)-------------------------------------------
------------------------------------------------
------------------------------------------------



In Bloom

intro part 1
------------------------------------------------
------------------------------------------------
-3--3-3-----------------------------------------
-3--3-3--5--5-5-5----3--3-3---6-6-6-------------
-1--1-1--5--5-5-5----3--3-3---6-6-6-------------
---------3--3-3-3----1--1-1---4-4-4-------------

part2
---------------------------------------------------
---------------------------------------------------
-3-3-3-3-3------------------8-8-8-8-8---4-4-4---2-2
-3-3-3-3-3--4-4-4-4-4-------8-8-8-8-8---4-4-4---2-2
-1-1-1-1-1--4-4-4-4-4-------6-6-6-6-6---2-2-2---0-0
------------2-2-2-2-2------------------------------

verse
------------------------------------------------
------------------------------------------------
------------------------------------------------
------------------------------------------------
------------------------------------------------
------------------------------------------------


--6--------2--------11------------------------------
--6--------2--------11------------------------------
--7--------3--------12-------5-5-5-5---8-8-8-8------
--8-x4-----4-x4-----13-x4----5-5-5-5---8-8-8-8------
--8--------4--------13-------3-3-3-3---6-6-6-6------
--6--------2--------11------------------------------

hes the one......            dont know what it means
------------------------------------------------
------------------------------------------------
-3-3-3-3---------------------5-5-5-5----8-8-8-8-
-3-3-3-3--5-5-5-5------------5-5-5-5----8-8-8-8-
-1-1-1-1--5-5-5-5------------3-3-3-3----6-6-6-6-
----------3-3-3-3-------------------------------


solo
----------------------------------------------------------------------
--16b---18b--14~~-----------------------------------------------------
---------------------6~--6--8--6--8b------6--8---8b-8--6--8~--8--6--8~
-------------------------------------6--8-----------------------------
----------------------------------------------------------------------
----------------------------------------------------------------------

------------------------------------------------------------------------------
--------------------8~--8-9-8-9--8-9-8-9--11-9-11b--11b--10-----9-9--9-9-8-7-6
8--6--8~---10b--10b-----------------------------------------8--7-7---7-7-6-5-4
------------------------------------------------------------------------------
------------------------------------------------------------------------------
------------------------------------------------------------------------------



Come as you are
tune down one whole step
1d
2a
3f
4c
5g
6d


intro

------------------------------------------------
------------------------------------------------
------------------------------------------------
------------------------------------------------
--------------0----0------------2------2--back to start
--0--0--1--2----2----2--2--1--0---0-0-----------


chorus   memory......

-|0|-----------0-----------------------------------
-|0|-----------0---------3-------------------------
-|3|-----------3---------2-------------------------
-|4|---4--4--------------2-------------------------
-|4|---4--4--------------0-------------------------
-|2|---2--2----------------------------------------

an i swear i dont have a gun...
  B5        D5
------------------------------------------------
------------3--3--------------------------------
--4-4-4-----2--2--------------------------------
--4-4-4-----0--0--------------------------------
--2-2-2-----------------------------------------
------------------------------------------------


solo
------------------------------------------------
------------------------------------------------
-6~---9--11~---6~--9--11~---6~--9--11--13--11--9
------------------------------------------------
------------------------------------------------
------------------------------------------------


Breed
intro/verse
------------------------------------------------
------------------------------------------------
------------------------------------------------
---4-4------------2-----------------------------
---4-4------------2-----------------------------
---2-2---0---5b---0-----------------------------


(tremolo picking)  'i dont care if its old'
------------------------------------------------
------------------------------------------------
---11--11--11~----------------------------------
------------------------------------------------
---9---9---9~-----------------------------------
------------------------------------------------

chorus
------------------------------------------------
--3-3-------------------------------------------
--2-2---2------5-5---4-4------------------------
--0-0---2------5-5---4-4------------------------
--------0------3-3---2-2------------------------
------------------------------------------------



solo


tremolo pick each chord
------------------------------------------------
------------------------------------------------
--11----14----15-----17----19-20-23-------------
------------------------------------------------
--9-----12----13-----15----17-18-21-------------
------------------------------------------------


Lithium

tune down 1 whole step

intro/verse/chorus
--------------------------------------------------------------
--------------------------------------------------------------
-------------------6--6----------5-5------7-7---4-4------7-7-7
---2--------6-6----6--6---7--7---5-5------7-7---4-4------7-7-7
---2--------6-6----4------7--7---3---3/---5-----2----2/--5-5-5
---0---0----4-------------5-----------------------------------


interlude
i like it im not gonna crack
-------------------------------------------------------------
-------------------------------------------------------------
--2-2-2--5-5-5--2-2--5---------------------------------------
--2-2-2--5-5-5--2-2--5----------7-7-7-7-7---4-4-4-4-4--------
--0-0-0--3-3-3--0-0--3----------5-5-5-5-5---2-2-2-2-2--------
-----------------------0--3--4--------------------------3---0


Polly

a good way to get an acoustic sound:
bass = 5 or just behind half way
middle = 7 or just above quarter past
treble is the same as the bass

verse
------------------------------------------------
-----------------3-3----------------------------
-----x-x---------2-2----------------------------
--2--x-x--5-5----0-0--5--5-5-4------------------
--2--x-x--5-5---------3--3-3-2------------------
--0--x-x--3-3-----------------------------------


chorus
------------------------------------------------
---3-3------------------------------------------
---2-2---5--5-5-5----------3-3-3----------------
---0-0---5--5-5-5---5-5----3-3-3----------------
---------3--3-3-3---5-5----1-1-1-0--------------
--------------------3-3-------------------------



Territorial Pissings

to get a totally evel sound for this one i take all the bass
out the lead and have the gain on full(well..have the gain on
high for all of them, total nirvana!) or just buy  a boss ds-2

intro * feedback
------------------------------------------------
------------------------------------------------
------------------------------------------------
------------------------------------------------
------------------------------------------------
------0---0------0------0-----------------------
      pm  pm     pm     pm


kurt plays   (main riff)
-------------------------------------------------
-------------------------------------------------
------------------10-10-10-10-10-----------------
----7--7-7-7-7----10-10-10-10-10---12-12-12-12-12
----7--7-7-7-7----8--8--8--8--8----12-12-12-12-12
----5--5-5-5-5---------------------10-10-10-10-10



Break
------------------------------------------------
--------------7---------------------------------
----------------7-------------------------------
--7-7---7---------7-----------------------------
--7-7---7---------------------------------------
--5-5---5---------------------------------------

pm---



Drain You

like come as you are its tuned down one whole step
except muddy banks and most live shows.

intro/verse
------------------------------------------------
------------------------------------------------
--4----4-4/---8-8-8-8-----------6-6-6-6---------
--4----4-4/---8-8-8-8---6--6-6--6-6-6-6---------
--2----2-2/---6-6-6-6---6--6-6--4-4-4-4---------
------------------------4--4-4------------------

                chew meat for you......
------------------------------------------------
------------------------------------------------
-------------------6--6-6-6---------------------
--4---4-4-2--------6--6-6-6-2-2-2-2-------------
--4---4-4-2--------4--4-4-4-2-2-2-2-------------
--2---2-2-0-----------------0-0-0-0-------------



------------------------------------------------
------------------------------------------------
------------------------------------------------
------------------------------------------------
------------------------------------------------
------------------------------------------------



  coz i like you
------------------------------------------------
------------------------------------------------
---4--2-----------------------------------------
---4--2---6-------------------------------------
---2--0---6-------------------------------------
----------4-------------------------------------


Lounge act


Slight distortion  intro/verse
------------------------------------------------
------------------------------------------------
--4-4----4-4--------5-5-------------------------
--4-4----4-4--5-5---5-5-------------------------
--2-2-x--2-2--5-5---3-3-------------------------
--------------3-3-------------------------------



chorus
--0--0-------------0-0---3-3-3-3----------------
--0--0-------------3-3---0-0-0-0----------------
--1--1---2-2-2-2---2-2---0-0-0-0----------------
--2--2---2-2-2-2---0-0---0-0-0-0----------------
--2--2---0-0-0-0---------2-2-2-2----------------
--0--0-------------------3-3-3-3----------------


still ...smell her on you  (heavy distortion)
------------------------------------------------
------------------------------------------------
--2---------------------------------------------
--2-------------5-5-5---------------------------
--0------3------5-5-5---------------------------
-------4---4----3-3-3---------------------------



Stay Away
------------------------------------------------
--3--3------------------------------------------
--2--2---4-4---------5---5---5-7----------------
--0--0---4-4--3-3----5---5---5-7----------------
---------2-2--3-3----3-0-3-0-3/5----------------
--------------1-1-------------------------------


'monkey see monkey do'
------------------------------------------------
------------------------------------------------
----------------------5-5-5-5b~-----------------
------------------------------------------------
------------------------------------------------
------------------------------------------------

break
------------------------------------------------
---3--------------------------------------------
---2--------------------------------------------
---0-----------4--------------------------------
---------------4--------------------------------
---------------2--------------------------------




On A Plain

Drop d tuned


------------------------------------------------
------------------------------------------------
-----7--7-7-------------------------------------
-----7--7-7---5--5-5---3--3-3--0--2-0-2-3-------
-----5--5-5---5--5-5---3--3-3--0--2-0-2-3-------
--------------5--5-5---3--3-3--0--2-0-2-3-------

love my self better than you
------------------------------------------------
------------------------------------------------
---7--7-7--5-5-5--4-4-4--2----------------------
---7--7-7--5-5-5--4-4-4--2----------------------
---5--5-5--3-3-3--2-2-2--0----------------------
------------------------------------------------


i know its wrong but what should i do..im on a plain
------------------------------------------------
------------------------------------------------
-----------7-7-7---7-7-7------------------------
-----------7-7-7---7-7-7---10-10-10-10-10-10----
-----------5-5-5---5-5-5---8--8--8--8--8--8-----
-------------------5-5-5---8--8--8--8--8--8----

somewhere i have heard this before...
--------------------------------------------------------
--------------------------------------------------------
--------------------------------------------------------
------3---3--------2-------0-----7--7-7---5-5-5---0--0-0
----3---3---3----2---2----0-0----7--7-7---5-5-5---0--0-0
--3-------------2--------0-------7--7-7---5-5-5---0--0-0


what the hell am i trying to say?

------------------------------------------------------------
------------------------------------------------------------
------------------------------------------------------------
----------------------------------5-5-5-5-5-----------------
----------------------------------5-5-5-5-5-----------------
----------------------------------5-5-5-5-5---bass-interlude


something in the way
1eb
2Bb
3gb
4db
5ab
6Db


verse
------------------------------------------------------------
------------------------------------------------------------
------------------------------------------------------------
--4--4-4-4--0-0---------------------------------------------
--4--4-4-4--0-0---------------------------------------------
--4--4-4-4--0-0---------------------------------------------

Chorus
------------------------------------------------------------
----3--3-3-3------------------------------------------------
----2--2-2-2------------------------------------------------
----0--0-0-0--6-6-6-----------------------------------------
--------------6-6-6-----------------------------------------
--------------6-6-6-----------------------------------------

comments
print report bad tab
3 comments total.
0 reply
physek wrote on March 2 2002, 12:00 am

This isn't wrong, but you forgot most of the mutes, open strings, and slides, But over all this isn't that bad.

0 reply
skatersic666 wrote on June 17 2005, 12:00 am

not a bad job, good effort but a bit rough around the edges if you know what i mean.

0 reply
Tomozaurus wrote on September 26 2008, 04:46 am

Best TAB on here I reckon. You've done your homework, but like the others said, just a few little touch ups required.

I want to post or [tab]
guest
You may want to rate the tab now too:
select rating
Please do not post tabs as comments. Select "correction" instead!