Oops, an error
Loading. Please wait.

Old Age Tab

version 1
version 1

Whole song

Interactive

31,516 views 81 this week
4 commentsread comments
1 2 3 4 5
x 8
add to favorites
launch autoscroll
font size
0
reset
how to read this tab
guitar tuner
Autoscroll
slow
fast
+/-
esc
set tempo
stop
Help us to improve Ultimate-Guitar.com Take our survey!
×
Standard tuning

[Intro]
  E5            C
e|0----0---0-0---|---------------|
B|0----0---0-0---|-5--5-5--5-5---|
G|-------------0-|-5--5-5--5-5-0-|
D|2--2-2---2-2-0-|-5--5-5--5-5-0-|
A|2--2-2---2-2-0-|-3--3-3--3-3-0-|
E|0--0-0---0-0-0-|-------------0-|

[Verse]
  E5            C5
e|---------------|---------------|
B|---------------|---------------|
G|---------------|-5----5-----5-0| (x2)
D|----2------2-0-|-5-------5----0|
A|2---2----2-2-0-|-3-------------|
E|0--------0---0-|---------------|

(let ring)

G5          A5            C     
e|----3-----|-------------|-------------|----------------|
B|----3-----|-2---2-------|-5----5----5-|----5-5-5-5-5---|
G|0---0-----|-2---2----2--|-5----5----5-|--5-5-5-5-5-5-0-|
D|0---0-----|-2---2----2--|-5----5----5-|--5-5-5-5-5-5-0-|
A|----------|-0---0----0--|-3----3----3-|--3-3-3-3-3-3-0-|
E|3---------|-------------|-------------|----------------|
let ring

[Pre-Chorus]
  E5            C
e|0----0---0-0---|---------------|
B|0----0---0-0---|-5--5-5--5-5---|
G|-------------0-|-5--5-5--5-5-0-|
D|2--2-2---2-2-0-|-5--5-5--5-5-0-|
A|2--2-2---2-2-0-|-3--3-3--3-3-0-|
E|0--0-0---0-0-0-|-------------0-|

[Chorus]
  A
e|---------------|0----0---0-0---|
B|2--2-2-2-2-2---|0----0---0-0---|
G|2--2-2-2-2-2-0-|-------------0-|
D|2--2-2-2-2-2-0-|2--2-2---2-2-0-|
A|0--0-0-0-0-0-0-|2--2-2---2-2-0-|
E|-------------0-|0--0-0---0-0-0-|
Suggest correction
comments
print report bad tab
4 comments total. Showing first comments.
-1 reply
Browan 10 Nov 15, 2006 10:15 PM

it's ok...

-1 reply
742627000017 163 Mar 08, 2007 08:04 AM

HELL YEAH

0 reply
Kivo69 61 Feb 01, 2010 11:11 AM

That's what I got. Good job.

guest
You may want to rate the tab now too:
select rating
Wanna post a correction for this tab? Suggest correction