Oops, an error
Loading. Please wait.

Opinion Bass Tab

version 1
version 1

Whole song

Interactive

1,006 views 3 this week
2 commentsread comments
1 2 3 4 5
x 6
add to favorites
launch autoscroll
font size
0
reset
guitar tuner
×
Best way to learn
"Opinion"
Autoscroll
slow
fast
+/-
esc
set tempo
stop
Nirvana
Opinion
    -------

There is no real bassline in this song, but if you add one,
it goes like this:

G--------------------------------|
D--------------------------------|
A-1--1-1---------4--4-4----------|
E--------2-2-2-2--------1-1-1-1--|
Suggest correction
comments
print report bad tab
2 comments total.
+1 reply
fenderNthusiast 10 Jul 08, 2004 08:00 PM

it would be right a semitone higher

+2 reply
MrMade529 10 Mar 25, 2010 03:59 AM

maybe better be ti play

G--------------------------------|
D--------------------------------|
A-2--2-2---------5--5-5----------|
E--------3-3-3-3--------2-2-2-2--|

anyway good tab

guest
You may want to rate the tab now too:
select rating
Wanna post a correction for this tab? Suggest correction