Oops, an error
Loading. Please wait.

Paper Cuts Tab

version 1
version 1

Whole song

Interactive

by Nirvana
28,380 views 75 this week
7 commentsread comments
1 2 3 4 5
x 14
add to favorites
×
Save as Personal and add changes to this tab that will be seen only by you. Learn more ›
×
You can save this tab as Personal to edit and correct it or add notes. All changes will be seen only by you. Learn more »
save as personal
new!
launch autoscroll
font size
0
reset
how to read this tab
guitar tuner
Autoscroll
slow
fast
+/-
esc
set tempo
stop
Paper Cuts by Nirvana
Guitarist: Kurt Cobain
Album: Bleach
Dif.: 6
Tabbed by Twiggy5


[Intro]
e|--------------------------------------|
B|--------------------------------------|
G|--------------------------------------|
D|--------------------------------------|
A|-2-2-2-2-2-2--2--2-2-2--X\\\\\\\\-----|
E|-1-1-1-1-1-1--1--1-1-1--X\\\\\\\\\----|
 Pm-------------------------------------| ^ turn flanger on for pik scrape

Intro 2
e|--------------------------------------|
B|--------------------------------------|
G|--------------------------------------|
D|--------------------------------------|
A|-2-2-2-2-2-2--2--2-2-2--X\\\\\\\\-----|
E|-1-1-1-1-1-1--1--1-1-1--X\\\\\\\\\----|
 Pm-------------------------------------|

Intro 2 (cont.)
E|------------------------------------0-----|
B|---------------------------------0--------|
G|-----------------------------0------------|
D|------------------------------------------|
A|-2-2-2-2-2-2--2--2-2-2--------------------|
E|-1-1-1-1-1-1--1--1-1-1--------------------|
  Pm---------------------|  let ring--------|

[Verse] ("At feeding time….")
E|--------------------------------0------0------|
B|-----------------------------0----------------|
G|-------------------------3---------3----------|
D|----------------------------------------------|
A|-2-2-2-2-2-2--2--2-2-2------------------------|
E|-1-1-1-1-1-1--1--1-1-1------------------------|
  Pm--------------------|let ring---------------|

Fill 1 (Just after "A good hosing down…")
e|--------------------------------------|
B|--------------------------------------|
G|--------------------------------------|
D|--------------------------------------|
A|-2-2-2-2-2-2--2--2-2-2----------------|
E|-1-1-1-1-1-1--1--1-1-1--(feedback)----|
 pm-------------------------------------|

[Pre-Chorus] (let all notes ring)
E|---------0----0------0-----------0--------0-----------0----|
B|-----0---0----0------0--------0----------0-----------------|
G|------------------3---------3--------------------3---------|
D|-----------------------------------------------------------|
A|-2---------------------------------------------------------|
E|-----------------------------------------------------------|

[Pre-Chorus] (cont.)
E|-----------0-------0---------------0----------0-----------------|
B|-----------0-------0---------0------------0----------------0----|
G|------3------------------3-------------3----------3---3---------|
D|----------------------------------------------------------------|
A|----------------------------------------------------------------|
E|-0--------------------------------------------------------------|

[Pre-Chorus] (cont.)
E|--------0------------------0------------0-------------0------------|
B|-----0---------------------0---0----0---0-------------0-------0----|
G|--3------------------------------------------3-----------3---------|
D|-------------------------------------------------------------------|
A|-------------------------------------------------------------------|
E|-------------0-----------------------------------------------------|

[Pre-Chorus] (cont.)
E|------------0----------------------------------------0-----------0------|
B|------------0---------------------------0------0---------------0--------|
G|------------1--------------3----1------------------------------------1--|
D|------------------------------------------------------------------------|
A|------------------------------------------------------------------------|
E|-0------0---------------------------------------------------------------|

[Pre-Chorus] (cont.)
E|----------0-------------0------------------0------------0-----------|
B|----------0---------------------------0---------0-------------------|
G|----------1---------3-------3--------------------------------3------|
D|--------------------------------------------------------------------|
A|--------------------------------------------------------------------|
E|-0----0-------------------------------------------------------------|

[Pre-Chorus] (cont.)
E|------------0-----------0---0----------------0---------0---0---|
B|------------0-----------0---0----------------0---------0---0---|
G|---------------------------------------------------------------|
D|---------------------------------------------------------------|
A|---------------------------------------------------------------|
E|-0-----0--------------------------0-----0----------------------|

[Chorus] ("Ow…………..")
E|----------------------------------0--0---0--------|
B|----------------------------------0--0---0--------|
G|--------------------------4\3--3--3--3---3--------|
D|-3--4--4--5--5--6--6------4\3--3--3--3---3--------|
A|-3--4--4--5--5--6--6------2\1--1--1--1---1--------|
E|-1--2--2--3--3--4--4--0---------------------0-----|
  Pm------------------------------------------------|

[Post-Chorus] ("Nirvana, nirvana, nirvana…")
E|-------------0--0-------------------0--0----------|-%-|
B|-------------0--0-------------------0--0----------|-%-|
G|-------------0--0--------3--4\3--3--3--3--3--3----|-%-|
D|--6\5--5--5--5--5--5--5--3--4\3--3--3--3--3--3----|-%-|
A|--6\5--5--5--5--5--5--5--1--2\1--1--1--1--1--1----|-%-|
E|--4\3--3--3--3--3--3--3-------------------------0-|-%-|
                    Pm---|

[Post-Chorus] (cont.)
E|----------0--0-------------|
B|----------0--0-------------|
G|----------0--0-------------|
D|--6\5--5--5--5--5--5-------|
A|--6\5--5--5--5--5--5-------|
E|--4\3--3--3--3--3--3--0----|
                 Pm---|

Fill 2
E|----------------3---|-%-|
B|----------------3---|-%-|
G|--------------------|-%-|
D|--------------------|-%-|
A|-3-3-3-3-3-3-3--3---|-%-|
E|-1-1-1-1-1-1-1--1---|-%-|

[Outro]
E|-------------------0--0----------------0---------------------|
B|-------------------0--0----------------0---------------------|
G|--------4\3--3--3--3--3--3-------------0---------------------|
D|--------4\3--3--3--3--3--3-------6--5--5--5--5--5--5--5------|
A|--------2\1--1--1--1--1--1-------6--5--5--5--5--5--5--5------|
E|--2--1----------------------0----4--3--3--3--3--3--3--3--0---|


[Outro 2]
e|------------------------------------------------------------|
B|------------------------------------------------------------|
G|---------4------4------------4---------4--------------------|
D|--4-4-4-4-4-4-4-4--------4-4-4-4-4-4-4-4--------------------|
A|--4-4-4-4-4-4-4-4--------4-4-4-4-4-4-4-4--------------------|
E|--2-2-2-2-2-2-2-2--------2-2-2-2-2-2-2-2--------(feedback)--|

Song Structure: -
Feedback with drumstick count in
Intro
Intro 2
Verse
Fill 1
Pre-Chorus ("The lady whom I feel maternal love…")
Chorus
Post-Chorus
Fill 2
Verse
Pre-Chorus ("And very lately I have learned…")
Chorus
Post-Chorus
Outro
Outro 2

Ahhh, such a lovely song. Very fukked up if you ask me. If you have
any comments, corrections or suggestions email me at
Suggest correction
comments
print report bad tab
7 comments total. Showing first comments.
0 reply
BulopMylo 10 Apr 28, 2005 08:00 PM

Hmmm...

+1 reply
alfdabomb 10 Jul 17, 2005 08:00 PM

u just copied this outta the bleach tab book, but well copied

+1 reply
Brody GuitarGod 31 Feb 23, 2006 05:16 PM

hey i dont care if u had to kill any one for this tab i think it sounds good =D (5***** for u!)good job man!

guest
Wanna post a correction for this tab? Suggest correction