Oops, an error
Loading. Please wait.

Pennyroyal Tea Tab

version 3
version 3

Whole song

Interactive

16,453 views 30 this week
6 commentsread comments
1 2 3 4 5
accurate
x 10
add to favorites
launch autoscroll
font size
0
reset
how to read this tab
guitar tuner
Autoscroll
slow
fast
+/-
esc
set tempo
stop
Help us to improve Ultimate-Guitar.com Take our survey!
×
Author
Hey It's guitar2player and here is another Nirvana tab, not sure if it's standard or 
step down you choose, here it is...

Legend:
~ = Let ring
* = Distortion
/ = slide into

Verse:

  Am       Am  Am  Am          G    G  G   G
|-0~-------0--0~---0~----------3~---3--3---3~--------|
|-1~-------1--1~---1~----------3~---3--3---3~--------|
|-2~-------2--2~---2~----------0~---0--0---0~--------|
|-2~-------2--2~-2-2~----------0~---0--0---0~--------|x2 Distortion second
|-0~-2-0-2-0--0~-2-0~-3-1-3-0--2~---2--2-3-2~--------|  Time only
|------------------------------3~-3-3--3-3-3~-3-1-3-0|
                                              * * * *
Chorus:

|--------------------------------------------------------------|
|--------------------------------------------------------------|
|-5-5-5-5-5-5-5-5-/-7-7-7-7-7-7-7-/-3-3-3-3-3-3-3-----3-----3--|
|-5-5-5-5-5-5-5-5-/-7-7-7-7-7-7-7-/-3-3-3-3-3-3-3-----3-----3--|
|-3-3-3-3-3-3-3-3-/-5-5-5-5-5-5-5-/-1-1-1-1-1-1-1-p0-h1-p0-h1--|x4
|--------------------------------------------------------------|
  * * * * * * * *   * * * * * * *   * * * * * * *  *  *  *  *
Verse:

  Am       Am  Am  Am          G    G  G   G
|-0~-------0--0~---0~----------3~---3--3---3~--------|
|-1~-------1--1~---1~----------3~---3--3---3~--------|
|-2~-------2--2~---2~----------0~---0--0---0~--------|
|-2~-------2--2~-2-2~----------0~---0--0---0~--------|x2 Distortion second
|-0~-2-0-2-0--0~-2-0~-3-1-3-0--2~---2--2-3-2~--------|   Time only
|------------------------------3~-3-3--3-3-3~-3-1-3-0|
                                              * * * *
Chorus:

|--------------------------------------------------------------|
|--------------------------------------------------------------|
|-5-5-5-5-5-5-5-5-/-7-7-7-7-7-7-7-/-3-3-3-3-3-3-3-----3-----3--|
|-5-5-5-5-5-5-5-5-/-7-7-7-7-7-7-7-/-3-3-3-3-3-3-3-----3-----3--|
|-3-3-3-3-3-3-3-3-/-5-5-5-5-5-5-5-/-1-1-1-1-1-1-1-p0-h1-p0-h1--|x4
|--------------------------------------------------------------|
  * * * * * * * *   * * * * * * *   * * * * * * *  *  *  *  *
Solo: [all weird distortion]

|---------------------------------------3-3-2-0-----------|
|----------------------------------------------3-2-0------|
|----2-h3-p2-0----2-h3-p2-0-------------------------2-0---|x2
|--2------------2------------0-2-h3-p2-0------------------|
|-0-----------0-------------------------------------------|
|-------------------------3-------------------------------|

Verse: [quieter than the other verses]

  Am       Am  Am  Am          G    G  G   G
|-0~-------0--0~---0~----------3~---3--3---3~--------|
|-1~-------1--1~---1~----------3~---3--3---3~--------|
|-2~-------2--2~---2~----------0~---0--0---0~--------|
|-2~-------2--2~-2-2~----------0~---0--0---0~--------|x2 Distortion second
|-0~-2-0-2-0--0~-2-0~-3-1-3-0--2~---2--2-3-2~--------|  Time only
|------------------------------3~-3-3--3-3-3~-3-1-3-0|
                                              * * * *

Chorus:

|--------------------------------------------------------------|
|--------------------------------------------------------------|
|-5-5-5-5-5-5-5-5-/-7-7-7-7-7-7-7-/-3-3-3-3-3-3-3-----3-----3--|
|-5-5-5-5-5-5-5-5-/-7-7-7-7-7-7-7-/-3-3-3-3-3-3-3-----3-----3--|
|-3-3-3-3-3-3-3-3-/-5-5-5-5-5-5-5-/-1-1-1-1-1-1-1-p0-h1-p0-h1--|x4
|--------------------------------------------------------------|
  * * * * * * * *   * * * * * * *   * * * * * * *  *  *  *  *


Outro:
                 Am  Am  Am    Am     Am
|-----------------0~-0~--0--0---0--0---0------0~-|
|-----------------1~-1~--1---1--1---1--1-----1---|
|-3-3-3-3-3-3-3-3-2~-2~--2----2-2----2-2----2----|x1
|-3-3-3-3-3-3-3-3-2~-2~--2------2------2---2-----|
|-1-1-1-1-1-1-1-1-0~-0~--0------0------0--0------|
|------------------------------------------------|
  * * * * * * * * * *
Suggest correction new What's this?
You can suggest a correction to this tab. Community and Mods will review your correction and vote to approve or reject it.
comments
print report bad tab
6 comments total. Showing first comments.
0 reply
Teen Spirit 3,022 wrote on July 1 2009, 03:49 pm

neat :D

0 reply
guitar2player 141 wrote on July 2 2009, 08:17 am

thanks it's and easy tab, hope you liked it :)

0 reply
stpJL08 20 wrote on July 23 2009, 05:29 pm

every song on in utero is either tuned down half step or drop d half step just to clear that up, anyways 5 stars

guest
You may want to rate the tab now too:
select rating
Please do not post tabs as comments. Select "correction" instead!