Oops, an error
Loading. Please wait.

Plateau Bass

version 1
version 1

Whole song

Interactive

by Nirvana
940 views 15 this week
1 commentread comment
1 2 3 4 5
1 last vote to show rating
add to favorites
launch autoscroll
font size
0
reset
guitar tuner
Autoscroll
slow
fast
+/-
esc
set tempo
stop
Difficulty
novice
-------------------------------------------------------------------------------
                             Plateau - NiRvAna
-------------------------------------------------------------------------------
Tabbed by: Rflexx
E-mail: robinflexx4@gmail.com

If there is something wrong please send me an email.
Listen to the song to get the right timing.
Good luck and have fun!


Tuning: standard tuning
| /  slide up
| \  slide down
| h  hammer-on
| p  pull-off
| ~  vibrato
| +  harmonic
| x  Mute note
There is no intro on the bass but if you want to, then play this:
G|---------------------------------------------------------------------------|
D|---------------------------------------------------------------------------|
A|-9-12-9-12-9-12-7~---------------------------------------------------------|
E|---------------------------------------------------------------------------|

Verse:
G|---------------------------------------------------------------------------|
D|---------------------------------------------------------------------------|
A|---------------------------------------------------------------------------|
E|-2-2-x-2-2-x-2-2-x-0-0-----------------------------------------------------|

Verse variation 1:
G|---------------------------------------------------------------------------|
D|---------------------------------------------------------------------------|
A|---------------------------------------------------------------------------|
E|-2-2/5-2 2/5-2-2/5-0~------------------------------------------------------|

Verse variation 2:
G|---------------------------------------------------------------------------|
D|---------------------------------------------------------------------------|
A|----0----0----0------------------------------------------------------------|
E|-2-2--2-2--2-2--0~---------------------------------------------------------|

Chorus:
G|----|-----------------------------------------------------------------------|
D|----|-----------------------------------------------------------------------|
A|----|-----------------------------------------------------------------------|
E|-3~-|-2-2--5-5-0--2-2--5~---------------------------------------------------|

Outro:
G|---------------------------------------------------------------------------|
D|---------------------------------------------------------------------------|
A|----4-2-2/6----7\2----4-2-2/6----7\2-1h2-----------------------------------|
E|-4~---------4~-----4~---------4~---------4~~~------------------------------|




===============================================================================
Suggest correction
Give kudos to tab author, rate the tab!
1 2 3 4 5
comments
print report bad tab
1 comment total.
0 reply
lurkingfan4 52 May 01, 2016 08:10 AM

Not sure if it's correct, but it does sound very good.

guest
Wanna post a correction for this tab? Suggest correction