Oops, an error
Loading. Please wait.

Polly Tab

version 3
27,814 views 15 this week
11 commentsread comments
1 2 3 4 5
accurate
x 26
add to favorites
launch autoscroll
font size
0
reset
how to read this tab
guitar tuner
Tab Pro tools
  • play this tab
  • loop segment
  • change instrument
  • show fretboard
  • metronome
×
Best way to learn
"Polly"
Autoscroll
slow
fast
+/-
esc
set tempo
stop
Contributor
one of my all time fav. songs. just listen to the song to get the timing.

intro:

e|-----------------------------------------
B|-----------------------------------------
G|---------------7-7-5--5------------------
D|-2-x--5-5-x-x--7-7-5--5------------------
A|-2-x--5-5-x-x--5-5-3--3------------------
E|-0-x--3-3-x-x----------------------------

chorus:

e|-----------------------------------------
B|-----------------------------------------
G|-7-x--5-5-5-5----------------------------
D|-7-x--5-5-5-5--5-x--8-8-8-8--------------
A|-5-x--3-3-3-3--5-x--8-8-8-8--------------
E|---------------3-x--6-6-6-6--------------

interlude:

e|-----------------------------------------
B|-----------------------------------------
G|-----------------------------------------
D|----------0-0-0--------------------------
A|----------------3-3-3--------------------
E|-0--3-3-3--------------------------------

playing order:

intro:     twice
verse:     4x
chorus:    9x
verse:     6x
chorus:    9x
interlude: twice
verse:     4x
chorus:    9x


this should be 100% correct, if not close to it. email at l1lwang@yahoo.com for corrections if needed.
comments
print report bad tab
11 comments total. Showing first comments.
0 reply
negative1 wrote on January 25 2002, 12:00 am

while this is correct, so is version 1 so why did we need another version?

0 reply
alexev31 wrote on August 11 2002, 12:00 am

Instead of this:

e|--------------------------------------
B|--------------------------------------
G|---------------7-7-5--5---------------
D|-2-x--5-5-x-x--7-7-5--5---------------
A|-2-x--5-5-x-x--5-5-3--3---------------
E|-0-x--3-3-x-x-------------------------

The intro should go like this:

e|-----------------------------------
B|------------------3-3--------------
G|------------------2-2---5-5-5------
D|-2-x--0--5-5-x--0-------5-5-3-0----
A|-2-x--0--5-5-x--0-------3-3-3-0----
E|-0-x--0--3-3-x----------------0----

+1 reply
Kurt_Cobain wrote on October 15 2002, 12:00 am

The intro's right, ya big homo. the chorus and the interlude are wrong, slag them off.

I want to post or [tab]
guest
You may want to rate the tab now too:
select rating
Please do not post tabs as comments. Select "correction" instead!