Oops, an error
Loading. Please wait.

Radio Friendly Unit Shifter Bass Tab

version 1
version 1

Whole song

Interactive

7,068 views 15 this week
2 commentsread comments
1 2 3 4 5
x 4
add to favorites
launch autoscroll
font size
0
reset
guitar tuner
Autoscroll
slow
fast
+/-
esc
set tempo
stop
Help us to improve Ultimate-Guitar.com Take our survey!
×
Author
this first part is most of the song... except for the bridge...

G------------------------------------|
D------------------------------------|
A-------2-2----------1-1-------------|
E--4-4-------2-2-2--------1-1-1-0----|h1

BRIDGE

G--------------------------------------------|
D--------------------------------------------|
A--33333333/77777777----------------33333333-|
E--------------------------55555555----------|

| /  slide up
| \  slide down
| h  hammer-on
| p  pull-off
| ~  vibrato
| +  harmonic
| x  Mute note

send all hate mail to metaldudemaggot@yahoo.com
Suggest correction
comments
print report bad tab
2 comments total.
+1 reply
controlfreak 30 Jul 07, 2008 10:02 AM

the riff and bridge are in 2 different keys

+1 reply
mansen 10 Apr 30, 2012 12:44 PM

As In Utero was completely recorded a halfstep lower the tuning has to be Eb, Ab, Db, Gb.

The first part had the right pitch but in the actual tuning it is:


Gb------------------------------------|
Db------------------------------------|
Ab-------3-3----------2-2-------------|
Eb--5-5-------3-3-3--------2-2-2-0----|


the brigde has the right figures but the tuning has to be one halfstep lower.


Gb--------------------------------------------|
Db--------------------------------------------|
Ab--33333333/77777777----------------33333333-|
Eb--------------------------55555555----------|

guest
You may want to rate the tab now too:
select rating
Wanna post a correction for this tab? Suggest correction