Oops, an error
Loading. Please wait.

Rape Me Tab

version 1
version 1

Live

  • Live at the Paramount (1991) only version with sol... Show more
28 views 6 this week
no commentswrite comment
1 2 3 4 5
3 more votes to show rating
add to favorites
launch autoscroll
font size
0
reset
how to read this tab
guitar tuner
Autoscroll
slow
fast
+/-
esc
set tempo
stop
Help us to improve Ultimate-Guitar.com Take our survey!
×
Author
Difficulty
Capo
newg [tm] 45,843
novice
1st fret
About this tab version
Live at the Paramount (1991) only version with solo. there aresome differences with the other tabs. Was this info helpful? Yes No
----------------------------------------------------------------------------------------------------
                           Nirvana - Rape Me 
----------------------------------------------------------------------------------------------------

Album : Live at the Paramount (1991)
Tempo : 110
E-mail: gwendal.mollo@orange.fr
Tabbed by: newg    (http://profile.ultimate-guitar.com/newg/)

Strange tuning here, the cd version is different of the DVD version, 1 half step.
It's seems like he turn his guitar 1  half step up : F Bb Eb Ab C F
but with a capo on 1 it's easier.


[Intro]

e|--------------------x-----x--------------------|--------------------x-----x--------------------|
B|--------------------x--x--x--x-----------------|--------------------x--x--x--x-----------------|
G|--2-----------2-----x--x--x--x--5-----5-----0--|--------------------x--x--x--x--------0--------|
D|--2-----------2--------x-----x--5-----5-----0--|--2-----------2--------x-----x--0-----0--------|
A|--0-----------0-----------------3-----3-----0--|--2-----------2-----------------2-----2-----0--|
E|--------------------------------------------0--|--0-----------0-----------------3-----3-----0--| x4


[Verse]
 
e|----------------------------|----------------------------|
B|----------------------------|----------------------------|
G|--------2h-0--------0-------|--------------------0-------|
D|----------------------------|--------2-----------0-------|
A|--0-----------3-------------|-----------2-----2----------|
E|----------------------------|--0-----------3-------------|


----------------------------|----------------------------|
--------------------1-------|--------------------0-------|
--------2h-0--------0-------|--------------------0-------|
-----------------2----------|--------2-------------------|
--0-----------3-------------|-----------2-----2----------|
----------------------------|--0-----------3-------------|


----------------------------|----------------------------|
--------------------1-------|--------------------0-------|
--------2h-0--------0-------|--------------------0-------|
-----------------2----------|--------2-----------0-------|
--0-----------3-------------|-----------2-----2----------|
----------------------------|--0-----------3-------------|


----------------------------|--------------3--3--3--3----|
--------------------1-------|--------------3--3--3--3----|
--------2h-0--------0-------|--------------0--0--0--0----|
-----2-----------2----------|--------2-----0--0--0--0----|
--0-----------3-------------|-----2--2--2--2--2--2--2----|
----------------------------|--0--0--------3--3--3--3----|


[Chorus]

e|--------------------x-----x--------------------|--------------------x-----x-----------------x----|
B|--------------------x--x--x--x-----------------|--------------------x--x--x--x--------------x--x-|
G|--2-----------2-----x--x--x--x--5-----5-----0--|--------------------x--x--x--x--------0-----x--x-|
D|--2-----------2--------x-----x--5-----5-----0--|--2-----------2--------x-----x--0-----0--------x-|
A|--0-----------0-----------------3-----3-----0--|--2-----------2-----------------2-----2----------|
E|--------------------------------------------0--|--0-----------0-----------------3-----3----------| x4


[Solo]
witch disto & chorus

e|----------------------------|
B|----------------------------|
G|--2b----0--2b----2--0-------|
D|----------------------------|
A|----------------------------|
E|----------------------------| x2

e|----------------------------|----------------------------|
B|----------------------------|----------------------------|
G|--2b----0--5--8L------------|--8-----5--5-----2--0L-0----|
D|----------------------------|----------------------------|
A|----------------------------|----------------------------|
E|----------------------------|----------------------------|

e|----------------------------|
B|----------------------------|
G|--2b----0--2b----2--0-------|
D|----------------------------|
A|----------------------------|
E|----------------------------| x3

e|----------------------------|
B|----------------------------|
G|----------------------------|
D|----------------------------|
A|----------------------------|
E|--5b------------------------| 


[Outro]

e|--0--------------|
B|--0--------------|
G|--2--------------|
D|--2--------------|
A|--0--------------|
E|-----------------|
Suggest correction
Give kudos to tab author, rate the tab!
1 2 3 4 5
comments
print report bad tab
guest
You may want to rate the tab now too:
select rating
Wanna post a correction for this tab? Suggest correction