Oops, an error
Loading. Please wait.

Rape Me Bass Tab

version 3
version 3

Whole song

60,107 views 87 this week
4 commentsread comments
1 2 3 4 5
accurate
x 21
add to favorites
launch autoscroll
font size
0
reset
guitar tuner
Autoscroll
slow
fast
+/-
esc
set tempo
stop
Help us to improve Ultimate-Guitar.com Take our survey!
×
[Verse 1]

  1., Rape   me.__________                   Rape   me.______  my  friend__
G|---------------------------|---------------|---------------------------|
D|---------------------------|---------------|---------------------------|
A|---------------------------|---------------|---------------------------|
E|---------------------------|---------------|---------------------------|
 
   Rape   me.__________         Rape   me.__________    a    -   gain_____
G|---------------------------|----------------------------------------------|
D|---------------------------|----------------------------------------------|
A|---------------------------|----------------------------------------------|
E|---------------------------|----------------------------------------------|


[Chorus]

          I'm not the on - ly one.__      I,_______ 
G|-------||------------------------|----------------------|
D|-------||------------------------|----------------------|
A|--/17\-||------------3---3--3--3-|----------------------|
E|-------||-5----5--5--------------|-0---0--0--3--3--3--0-|

  I'm not the on - ly one.__       I______
G|-----------------------|------------------|
D|-----------------------|----------5---5---|
A|------------3---3/5--5-|-7---7--7---7---7-|
E|-5----5--5-------------|------------------|

  I'm not the on - ly one.__      I,_______ 
G|------------------------|----------------------|
D|------------------------|----------------------|
A|------------3---3--3--3-|----------------------|
E|-5----5--5--------------|-0---0--0--3--3--3--0-|

 I'm not the on - ly one.__ I______ I'm not the only one
G|-----------------------|------------------|
D|-----------------------|----------5---5---|
A|------------3---3/5--5-|-7---7--7---7---7-|
E|-5----5--5-------------|------------------|


[Verse 2]

Hate me.
Do it and do it again.
Waste me.
Taste me my friend.
(the verse has the same bass line as the chorus)


[Chorus]

          I'm not the on - ly one.__      I,_______ 
G|-------||------------------------|----------------------|
D|-------||------------------------|----------------------|
A|--/17\-||------------3---3--3--3-|----------------------|
E|-------||-5----5--5--------------|-0---0--0--3--3--3--0-|

  I'm not the on - ly one.__       I______
G|-----------------------|------------------|
D|-----------------------|----------5---5---|
A|------------3---3/5--5-|-7---7--7---7---7-|
E|-5----5--5-------------|------------------|

  I'm not the on - ly one.__      I,_______ 
G|------------------------|----------------------|
D|------------------------|----------------------|
A|------------3---3--3--3-|----------------------|
E|-5----5--5--------------|-0---0--0--3--3--3--0-|

 I'm not the on - ly one.__ I______ I'm not the only one
G|-----------------------|------------------|
D|-----------------------|----------5---5---|
A|------------3---3/5--5-|-7---7--7---7---7-|
E|-5----5--5-------------|------------------|


[Bridge]

     My fav-'rite in-side  source.__________    I'll kiss your o-pen sores.__
G|--------------------------|------------------------|-----------------------|
D|-----------------------2--|------------------------|---------------------2-|
A|---4----4--4--4--2--4-----|-0----0--0--------------|-4----4--4--4--2--4----|
E|--------------------------|------------3--2--1--0--|-----------------------|

_______________
G|------------------------|
D|------------------------|
A|-0----0--0--------------|
E|------------3--2--1--0--|

     App-pre-ciate your con-cern.___________    You'll al-ways stink and burn
G|--------------------------|------------------------|-----------------------|
D|-----------------------2--|------------------------|---------------------2-|
A|---4----4--4--4--2--4-----|-0----0--0--------------|-4----4--4--4--2--4----|
E|--------------------------|------------3--2--1--0--|-----------------------|

_______________
G|-----------------------|------------------------|-------------------------|
D|-----------------------|------------------------|-------------------------|
A|-0----0--0-------------|------------------------|-------------------------|
E|------------3--2--1--0-|-1--1--1--1--1--1--1--1-|-/3--3--3--3--3--3--3--5-|


[Verse 3]

(verse 1 repeat)
(no bass)


[Chorus]

          I'm not the on - ly one.__      I,_______ 
G|-------||------------------------|----------------------|
D|-------||------------------------|----------------------|
A|--/17\-||------------3---3--3--3-|----------------------|
E|-------||-5----5--5--------------|-0---0--0--3--3--3--0-|

  I'm not the on - ly one.__       I______
G|-----------------------|------------------|
D|-----------------------|----------5---5---|
A|------------3---3/5--5-|-7---7--7---7---7-|
E|-5----5--5-------------|------------------|

  I'm not the on - ly one.__      I,_______ 
G|------------------------|----------------------|
D|------------------------|----------------------|
A|------------3---3--3--3-|----------------------|
E|-5----5--5--------------|-0---0--0--3--3--3--0-|

 I'm not the on - ly one.__ I______ I'm not the only one
G|-----------------------|------------------|
D|-----------------------|----------5---5---|
A|------------3---3/5--5-|-7---7--7---7---7-|
E|-5----5--5-------------|------------------|


[Outro]

   Rape me.______           Rape me.______          Rape me._______________
              Rape me._____           Rape me.____
G|------------------------|-------------------------|----------------------||
D|------------------------|------------5------------|----------------------||
A|-------------3--3--5--5-|-------------------------|----------------------||
E|--5---5--5--------------|-0---0---0-----3-3--3--0-|---5------------------||
Suggest correction
comments
print report bad tab
4 comments total. Showing first comments.
0 reply
Viva-la-mark 80 wrote on March 1 2006, 12:49 pm

This Is Great...

0 reply
bytemee04 10 wrote on November 12 2006, 09:05 pm

It could just be me...but it sounds like Krist is playing this song in drop tuning, just because it sounds a bit heavy when you listen to the song.

Awesome Tab though.

0 reply
KDC_Jebus_KDC 31 wrote on June 7 2007, 02:52 pm

ya you're right bytemee04 the tuning is down a half step(Eb,Ab,Db,Gb)btw this tab is perfect.

guest
You may want to rate the tab now too:
select rating
Please do not post tabs as comments. Select "correction" instead!