Oops, an error
Loading. Please wait.
We have an official Rape Me tab made by UG professional guitarists. Check out the tab »
×
8,965 views 21 this week
3 commentsread comments
1 2 3 4 5
x 5
add to favorites
launch autoscroll
font size
0
reset
how to read this tab
guitar tuner
backing track
0:00
0:00
×
Best way to learn
"Rape Me"
Autoscroll
slow
fast
+/-
esc
set tempo
stop
Author
Gtr I (Eb Ab Db Gb Bb Eb) - 'Kurt Cobain - clean electric'
Gtr II (Eb Ab Db Gb Bb Eb) - 'Rhythm - dist electric'
Gtr III (Eb Ab Db Gb Bb Eb) - 'Gtr I w/dist'

Intro
  Q=110
 4/4
  Gtr I
  Q  Q  Q  Q    Q  E. S S S E S S E   Q  E S S S S E S S E
|-------------|---------------------|----0-0-0-0-3-3-3-3---|
|-------------|---------0-1-1-1-1-0-|----0-0-0-0-0-0-0-0---|
|-x--x--x--x--|-2--2--2-0-0-0-0-0-0-|----------0-0-0-0-0---|
|-x--x--x--x--|-2--2--2-0-2-2-2-2-0-|-2--2-2-2-0-0-0-0-0---|
|-x--x--x--x--|-0--0--0-0-3-3-3-3-0-|-2--2-2-2-0-2-2-2-2---|
|-------------|---------------------|-0--0-0-0-0-3-3-3-3-0-|


                                             Verse 1
  Q  E. S S S E S S E   Q  E S S S S E E E    Q  E E E E E E
|---------------------|----0-0-0-0-3-3-3---||-----------------|
|---------0-1-1-1-1-0-|----0-0-0-0-0-0-0---||----2-------1----|
|-2--2--2-0-0-0-0-0-0-|----------0-0-0-0---||----2-------0----|
|-2--2--2-0-2-2-2-2-0-|-2--2-2-2-0-0-0-0---||----2-----2------|
|-0--0--0-0-3-3-3-3-0-|-2--2-2-2-0-2-2-2---||-0----0-3-----3--|
|---------------------|-0--0-0-0-0-3-3-3-0-||-----------------|


  Q  E E E E E E   Q  E E E E E E   Q  E E E E E E
|----------------|------------0---|----------------|
|------------1---|----2-------1---|------------0---|
|----2-------0---|----2-----0-----|----2-------0---|
|----2-----0-----|----2-----------|----2-----0-----|
|----------------|-0----0-3-----0-|----------------|
|-0----0-3-----0-|----------------|-0----0-3-----0-|


  Q  E E E E E E   Q  E E E E E E   Q  E E E E E E
|------------0---|----------------|----------------|
|----2-------1---|----0-------0---|----2-----1-1---|
|----2-----0-----|------------0---|-2--2---0-0-0---|
|----2-----------|----2-----0-----|-2--2---2-2-2---|
|-0----0-3-----0-|----------------|-0----0-3-3-3---|
|----------------|-0----0-3-----0-|--------------0-|


                         Chorus
                       Gtr III
  Q  E S S S S E  E  E    Q  Q  E E Q    Q  Q  E E E E
|----------0-3-3--3----||--------------|---------------|
|-0--0-0-0-0-0-0--0----||--------------|---------------|
|----------0-0-0--0----||-2--2--5-5-5--|---------------|
|-2--2-2-2-0-0-0--0----||-2--2--5-5-5--|-2--2--5-5-5---|
|-2--2-2-2-0-2-2--2----||-0--0--3-3-3--|-2--2--5-5-5---|
|-0--0-0-0-0-3-3--3--0-||--------------|-0--0--3-3-3-0-|
|                       |-Rhy Fig 1
| Gtr II
| H        E   E  Q       Q  Q  E E Q    Q  Q  E E E E
|----------------------||--------------|---------------|
|----------------------||--------------|---------------|
|----------------------||-2--2--5-5-5--|---------------|
|----------5---5-------||-2--2--5-5-5--|-2--2--5-5-5---|
|----------5---5-------||-0--0--3-3-3--|-2--2--5-5-5---|
|----------3---3-15\---||--------------|-0--0--3-3-3-0-|


  Gtrs II, III
  Q  Q  E E Q    Q  Q  E E E E
|--------------|---------------|
|--------------|---------------|
|-2--2--5-5-5--|---------------|
|-2--2--5-5-5--|-2--2----------|
|-0--0--3-3-3--|-2--2----------|
|--------------|-0--0--3-0-3-0-|
                 end Rhy Fig 1-|

Rhy Fig 1


 Verse 2 + 3
  $
  Gtr I
  Q  E S S S S E E E   Q  E S S S S E E E
|------------0-0-0---|----0-0-0-0-3-3-3---|
|----------0-1-1-1-0-|----0-0-0-0-0-0-0---|
|-2--2-2-2-0-0-0-0-0-|----------0-0-0-0---|
|-2--2-2-2-0-2-2-2-0-|-2--2-2-2-0-0-0-0---|
|-0--0-0-0-0-3-3-3-0-|-2--2-2-2-0-2-2-2---|
|--------------------|-0--0-0-0-0-3-3-3-0-|
|-Rhy Fig 2                 end Rhy Fig 2-|

Rhy Fig 2 x2


                                         Chorus
                     Gtrs II, III
  Q  E S S S S E E E   E E E E E E E E    Q  Q   E E   Q
|------------0-0-0---|-----------------||-------------------|
|----------0-1-1-1-0-|-----------------||-------------------|
|-2--2-2-2-0-0-0-0-0-|-----------------||-2--2---5-5---5----|
|-2--2-2-2-0-2-2-2-0-|-2-2-2-2---------||-2--2---5-5---5----|
|-0--0-0-0-0-3-3-3-0-|-2-2-2-2---------||-0--0---3-3---3----|
|--------------------|-0-0-0-0-3-0-3-0-||-------------------|
|
|                                                ~~
| W                    W                  Q  Q   Q    +Q
|--------------------|-----------------||-------------------|
|--------------------|-----------------||-------------------|
|--------------------|-----------------||-------------------|
|--------------------|-----------------||-------------------|
|--------------------|-----------------||-------------------|
|--------------------|-----------------||----0--22---(22)\--|


  Q  Q  E E E E   Q  Q  E E Q    Q  Q  E E E E
|---------------|--------------|---------------|
|---------------|--------------|---------------|
|---------------|-2--2--5-5-5--|---------------|
|-2--2--5-5-5---|-2--2--5-5-5--|-2--2----------|
|-2--2--5-5-5---|-0--0--3-3-3--|-2--2----------|
|-0--0--3-3-3-0-|--------------|-0--0--3-0-3-0-|


                                      To Coda
  Q  Q  E E Q    Q  Q  E E E E   Q  Q  E E Q
|--------------|---------------|--------------|
|--------------|---------------|--------------|
|-2--2--5-5-5--|---------------|-2--2--5-5-5--|
|-2--2--5-5-5--|-2--2--5-5-5---|-2--2--5-5-5--|
|-0--0--3-3-3--|-2--2--5-5-5---|-0--0--3-3-3--|
|--------------|-0--0--3-3-3-0-|--------------|


                   Bridge
  Q  Q  E E E E     Q  Q  E E Q    Q  Q  E E E E  4x
|---------------||---------------|----------------||
|---------------||o--------------|---------------o||
|---------------||--6--6--6-6-6--|-2--2-----------||
|-2--2----------||--6--6--6-6-6--|-2--2-----------||
|-2--2--------0-||o-4--4--4-4-4--|-0--0----------o||
|-0--0--3-0-3---||---------------|-------3-2-1-0--||


                                                     D.S. al Coda
  Q  E. S S S E E E   Q  E. S S S E E E   H    H      +W
|-------------------|-------------------|------0----|-(0)---------||
|-------------------|-------------------|------0----|-(0)---------||
|-------------------|-------------------|-----------|-------------||
|-3--3--3-3-3-3-3-3-|-5--5--5-5-5-5-5-5-|-2---------|-(2)---------||
|-3--3--3-3-3-3-3-3-|-5--5--5-5-5-5-5-5-|-2---------|-(2)---------||
|-1--1--1-1-1-1-1-1-|-3--3--3-3-3-3-3-3-|-0---------|-(0)---------||
                                          W


                   Outro
  &
  Gtr III
  Q  Q  E E E E     Q  Q  E E Q    Q  Q  E E E E
|---------------||---------------|---------------|
|---------------||o--------------|---------------|
|---------------||--2--2--5-5-5--|---------------|
|-2--2----------||--2--2--5-5-5--|-2--2--5-5-5---|
|-2--2----------||o-0--0--3-3-3--|-2--2--5-5-5---|
|-0--0--3-0-3-0-||---------------|-0--0--3-3-3-0-|
|
| Gtr II
| Q  Q  E E E E     Q  Q  E E Q    Q  Q  E E E E
|---------------||---------------|---------------|
|---------------||o--------------|---------------|
|---------------||--2--2--5-5-5--|---------------|
|-2--2--2-0-----||--2--2--5-5-5--|-2--2--2-0-----|
|-2--2------3-2-||o-0--0--3-3-3--|-2--2------3-2-|
|-0--0----------||---------------|-0--0----------|


  Q  Q  E E Q    Q  Q  E E E E     W          +W
|--------------|----------------||----------|--------*|
|--------------|---------------o||----------|--------*|
|-2--2--5-5-5--|----------------||-2--------|-(2)----*|
|-2--2--5-5-5--|-2--2-----------||-2--------|-(2)----*|
|-0--0--3-3-3--|-2--2----------o||-0--------|-(0)----*|
|--------------|-0--0--3-0-3-0--||----------|--------*|
|
| Q  Q  E E Q    Q  Q  E E E E     W          +W
|--------------|----------------||----------|--------*|
|--------------|---------------o||----------|--------*|
|-2--2--5-5-5--|----------------||-2--------|-(2)----*|
|-2--2--5-5-5--|-2--2--2-0------||-2--------|-(2)----*|
|-0--0--3-3-3--|-2--2------3-2-o||-0--------|-(0)----*|
|--------------|-0--0-----------||----------|--------*|
Suggest correction
comments
print report bad tab
3 comments total.
0 reply
TheMutts 10,516 Dec 29, 2004 07:00 PM

you stupid mother ***er.. why dont you go look at http://mikesguitarsite.co.uk... oh wait you already did seeing as how you just copied and pasted their tabs on here.. dumb ***ing stupid bitch!!

0 reply
TheMutts 10,516 Dec 29, 2004 07:00 PM

you stupid mother ***er.. why dont you go look at http://mikesguitarsite.co.uk... oh wait you already did seeing as how you just copied and pasted their tabs on here.. dumb ***ing stupid bitch!!

you stupid mother ***er.. why dont you go look at http://mikesguitarsite.co.uk... oh wait you already did seeing as how you just copied and pasted their tabs on here.. dumb ***ing stupid bitch!!

0 reply
Johnny_H 50 Oct 05, 2005 08:11 PM

This tab is perfect the best on the site but you blatently stole it from Mikes Guitar site. You could at least have given them the credit.

guest
You may want to rate the tab now too:
select rating
Wanna post a correction for this tab? Suggest correction