Oops, an error
Loading. Please wait.

Rape Me Tab

version 6
version 6
15,557 views 54 this week
4 commentsread comments
1 2 3 4 5
accurate
x 8
add to favorites
launch autoscroll
font size
0
reset
how to read this tab
guitar tuner
Tab Pro tools
  • play this tab
  • loop segment
  • change instrument
  • show fretboard
  • metronome
×
Best way to learn
"Rape Me"
Autoscroll
slow
fast
+/-
esc
set tempo
stop
Contributor
Difficulty
Tuning
novice
D# G# C# F# A# D#
Album|In Utero/Greatest Hits
Year|1993

Tune Down 1/2 Step

e|-x-x-x-x-0-|
b|-x-x-x-x-0-|
G|-x-x-x-x-0-|
D|-x-x-x-x-0-|
A|-x-x-x-x-0-|
E|-x-x-x-x---|

Intro/Verse 2

e|-0--0-0--------------------------------------------|
b|-0--0-0-x-x-x------------------------3--3-3-3------|
G|-2--2-2-x-x-x-5--5-5-0---------0-0-0-0--0-0-0------|
D|-2--2-2-x-x-x-5--5-5-0--2--2-2-0-0-0-0--0-0-0------|
A|-0--0-0-x-x-x-3--3-3-0--2--2-2-0-0-0-x--x-x-x------|
E|------------------------0--0-0-------3--3-3-3------|

Verse 1

e|--------------------------------------------|
b|--------------------------------------------|
G|-----2--------5-----------------------------|
D|---2---0----5---0------2--------5-----------|
A|-0--------3----------2---0----5---0---------|
E|-------------------0--------3---------------|

Chorus (i'm not the only one)

e|---------------------------------------------------|
b|---------------------------------------------------|
G|-2--2-2-0-0-0-5--5-5-0-----------------------------|
D|-2--2-2-0-0-0-5--5-5-0-2--2-2-x-x-x-5--5-5-0-------|
A|-0--0-0-0-0-0-3--3-3-0-2--2-2-x-x-x-5--5-5-0-------|
E|-----------------------0--0-0-x-x-x-3--3-3-0-------|

Verse 2 (Hate me)

Chorus

Bridge

e|---------------------------------------------------|
b|---------------------------------------------------|
G|-6--6-6-6-6----------------------------------------|
D|-6--6-6-6-6-0-7-7-7-7-0--5-4-3---------------------|
A|-4--4-4-4-4-0-7-7-7-7-0--5-4-3-0-------------------|
E|------------0-5-5-5-5-0--3-2-1-0-------------------|

Then

e|------------------------------------------0--------|
b|--------------------------------------------0------|
G|-------------------------------------9~------------|
D|-3--3-3-3-3-3-3-3/5--5-5-5-5-5-5-5-0-9~------------|
A|-3--3-3-3-3-3-3-3/5--5-5-5-5-5-5-5-0-7~------------|
E|-1--1-1-1-1-1-1-1/3--3-3-3-3-3-3-3-0---------------|

Intro

Chorus

Outro (Rape me! Rape me!)

e|----------------------------------------------|----|
b|----------------------------------------------|----|
G|-2--2-2-x-x-x-5-5-5-5/7-7-7-7-----------------|-2--|
D|-2--2-2-x-x-x-5-5-5-5/7-7-7-7-x-x-x-5--5-5-0--|-2--|
A|-0--0-0-x-x-x-3-3-3-----5-5-5-x-x-x-5--5-5-0--|-0--|
E|------------------------------x-x-x-3--3-3-0--|----|

Please rate what you think.
comments
print report bad tab
4 comments total. Showing first comments.
+1 reply
Rockspider333 wrote on August 2 2009, 04:57 pm

Great.
Better than the rest. 5/5

-2 reply
Draken68 wrote on August 4 2009, 10:10 pm

this doesnt seem right to me...the intro but not the 0 2 2 0 part

+1 reply
lukeBradley wrote on January 19 2014, 10:56 am

This is the CORRECT way, watch any live footage of him playing this

I want to post or [tab]
guest
You may want to rate the tab now too:
select rating
Please do not post tabs as comments. Select "correction" instead!