Oops, an error
Loading. Please wait.

Sappy Tab

version 1
version 1

Acoustic

Interactive

Video

11,750 views 96 this week
1 commentread comment
1 2 3 4 5
excellent!
x 10
add to favorites
launch autoscroll
font size
0
reset
how to read this tab
guitar tuner
Tab Pro tools
  • play this tab
  • loop segment
  • change instrument
  • show fretboard
  • metronome
×
Best way to learn
"Sappy"
Autoscroll
slow
fast
+/-
esc
set tempo
stop
Contributor
Difficulty
novice
Intro:
e|------------------------------------------------------------------|
B|------------------------------------------------------------------|
G|-----4-----4---4-----0--------------------------------0-------2---|x2
D|---4-----4---4-----0---0-----2--------4-----4---4---0-------2-----|
A|-2-----2-------------------2--------4-----4---4-----------0-----0-|
E|-----------------3-------0-----3--2-----2---------3-----3---------|

Verse 1:
e|------------------------------------------------------------------|
B|------------------------------------------------------------------|
G|-----4-----4---4-----0--------------------------------0-------2---|x4
D|---4-----4---4-----0---0-----2--------4-----4---4---0-------2-----|
A|-2-----2-------------------2--------4-----4---4-----------0-----0-|
E|-----------------3-------0-----3--2-----2---------3-----3---------|

Chorus 1:                                         x3
e|-----------------|--------------------------------|--------------------|
B|-----------------|--------------------------------|--------------------|
G|-----4-----4---4-|----0-----0---0-----------------|----0-----0---0-----|
D|---4-----4---4---|--0-----0---0-------2-----2---2-|--0-----0---0---4~~~|
A|-2-----2---------|------------------2-----2---2---|----------------4~~~|
E|-----------------|3-----3---------0-----0---------|3-----3---------2~~~|

Verse 2:
e|------------------------------------------------------------------|
B|------------------------------------------------------------------|
G|-----4-----4---4-----0--------------------------------0-------2---|x4
D|---4-----4---4-----0---0-----2--------4-----4---4---0-------2-----|
A|-2-----2-------------------2--------4-----4---4-----------0-----0-|
E|-----------------3-------0-----3--2-----2---------3-----3---------|

Chorus 2:                                         x4
e|-----------------|--------------------------------|----------------2~~~|
B|-----------------|--------------------------------|----------------2~~~|
G|-----4-----4---4-|----0-----0---0-----------------|----0-----0---0-3~~~|
D|---4-----4---4---|--0-----0---0-------2-----2---2-|--0-----0---0---4~~~|
A|-2-----2---------|------------------2-----2---2---|----------------4~~~|
E|-----------------|3-----3---------0-----0---------|3-----3---------2~~~|

*Lyrics*
And if you say your prayers
You will make God happy
And if you do what's true\told
You will make me happy
I'll keep you in a jar
And you will seem happy
I'll give you breathing holes
You will think you're happy, now

You're in a laundry room
You're in a laundry room
You're in a laundry room

And if you save yourself
You will make him happy
He'll bring you fine rewards
Then you will feel happy
I'll keep you in my room
I'm sure you'll be happy
And if you save your soul
You will think you're happy, now

You're in a laundry room
You're in a laundry room
You're in a laundry room
You're in a laundry room
comments
print report bad tab
1 comment total.
0 reply
hjspiers123 wrote on June 14 2014, 04:13 pm

great tab, but you could have done

e|------
b|------
g|------
d|---5--
a|--5-5-
e|-3----

I want to post or [tab]
guest
You may want to rate the tab now too:
select rating
Please do not post tabs as comments. Select "correction" instead!