Oops, an error
Loading. Please wait.

Sappy Bass Tab

version 1
version 1

Whole song

Interactive

8,423 views 3 this week
3 commentsread comments
1 2 3 4 5
x 11
add to favorites
launch autoscroll
font size
0
reset
guitar tuner
Autoscroll
slow
fast
+/-
esc
set tempo
stop
Help us to improve Ultimate-Guitar.com Take our survey!
×
Author
----------------------------------------------------------------------------
			     SAPPY - Nirvana
----------------------------------------------------------------------------
Tabbed by:dorris
Email:cleandirt2001@hotmail.com

Comments:this is another version of mine and plus, i was on another user, i hope it works

here we go....

G|-----------------------------------------------------------|
D|-----------------------------------------------------------|
A|-5-5-5-5--1-1--1--------0-0-0-0-0--1-1-1-------------------|  (3x)
E|-----------------3-3-3--------------------1-1--------------|

G|-----------------------------------------------------------|
D|-----------------------------------------------------------|
A|-5-5-5-5--1-1--1--------0-0-0-0-0--1-1-1-------5-5-5-5-5---|  (1x)
E|-----------------3-3-3-------------------------------------|

Chorus:

G|----------------------------|          G|------------------|
D|----------------------------|          D|------------------|
A|-1--1-1-1-1-----------------|   (3x)   A|-1--1-1-1-1--0----|  (1x)
E|-------------3--3-3-3-3-----|          E|------------------|


| /  slide up
| \  slide down
| h  hammer-on
| p  pull-off
| ~  vibrato
| +  harmonic
| x  Mute note
============================================================================
Suggest correction
comments
print report bad tab
3 comments total.
0 reply
Sören 51 Nov 06, 2004 12:00 AM

any basser will figure the easier version out anyway, so i think this tab here is pretty useless. but it deserves the same rating as ver2...

0 reply
mikecappa 53 Jan 26, 2010 10:49 AM

this tab and the other one are as basic as can get for this song. too much left out for this tab to be relevant. and it sucks that these are the only two. either figure it out, or don't tab it.

-1 reply
nirvana 5878 10 May 24, 2011 04:52 PM

If you find it too simple you can play how krist plays it in the live version. Heres the intro,verse and chorus:

G|------------------------------------
D|------------------------------------
A|------------------------------------
E|----6666-8888-----------------------
(getting louder)
G|-------------------------------------------------
D|----------------------------------------8--10----
A|-------------------------------------------------
E|--10-10-10-10-10-10\--666-333-555555-6---8-------
every other time add an 8 on the D string after the 10 on the E string.

chorus:

G|------------------------------------
D|------------------------------------
A|------------------------------------
E|10-10-10-10-10-10\-666666-333333-666666-333333-666666-333333-666666-5-------------------

guest
You may want to rate the tab now too:
select rating
Wanna post a correction for this tab? Suggest correction