Oops, an error
Loading. Please wait.

Sappy Tab

version 1
version 1
234,450 views 417 this week
28 commentsread comments
1 2 3 4 5
excellent!
x 101
add to favorites
launch autoscroll
font size
0
reset
how to read this tab
guitar tuner
Autoscroll
slow
fast
+/-
esc
set tempo
stop
Help us to improve Ultimate-Guitar.com Take our survey!
×
Contributor
onlyonehere 1,126
NIRVANA - SAPPY


[VERSE]

e|---------------------------------------------------------------------------|
B|---------------------------------------------------------------------------|
G|--6-6-6-6-6---2-2-2----------------------2-2-2---4-4-4-4-------------------|
D|--6-6-6-6-6---2-2-2--4-4-4-4---6-6-6-6---2-2-2---4-4-4-4-------------------| x4
A|--4-4-4-4-4---0-0-0--4-4-4-4---6-6-6-6---0-0-0---2-2-2-2-------------------|
E|---------------------2-2-2-2---4-4-4-4-------------------------------------|


[CHORUS] 
                                             x3
e|---------------|----------------------------|------------------------------|
B|---------------|-.------------------------.-|------------------------------|
G|--6-6-6-6-6-6--|---2-2-2-2-2-2--------------|-2-2-2-2-2--------------------|
D|--6-6-6-6-6-6--|---2-2-2-2-2-2--4-4-4-4-4---|-2-2-2-2-2---R E S T----------|
A|--4-4-4-4-4-4--|-.-0-0-0-0-0-0--4-4-4-4-4-.-|-0-0-0-0-0--------------------|
E|---------------|----------------2-2-2-2-2---|------------------------------|


[VERSE]

e|---------------------------------------------------------------------------|
B|---------------------------------------------------------------------------|
G|--6-6-6-6-6---2-2-2----------------------2-2-2---4-4-4-4-------------------|
D|--6-6-6-6-6---2-2-2--4-4-4-4---6-6-6-6---2-2-2---4-4-4-4-------------------| x4
A|--4-4-4-4-4---0-0-0--4-4-4-4---6-6-6-6---0-0-0---2-2-2-2-------------------|
E|---------------------2-2-2-2---4-4-4-4-------------------------------------|


[CHORUS]  
                                             x3
e|---------------|----------------------------|------------------------------|
B|---------------|-.------------------------.-|------------------------------|
G|--6-6-6-6-6-6--|---2-2-2-2-2-2--------------|-2-2-2-2-2--------------------|
D|--6-6-6-6-6-6--|---2-2-2-2-2-2--4-4-4-4-4---|-2-2-2-2-2---R E S T----------|
A|--4-4-4-4-4-4--|-.-0-0-0-0-0-0--4-4-4-4-4-.-|-0-0-0-0-0--------------------|
E|---------------|----------------2-2-2-2-2---|------------------------------|


[SOLO]

e|---------------------------------------------------------------------------|
B|---------------------------------------------------------------------------|
G|-------------------4-4-6-6-6-8-8-8-8-8b-8-6-8-8b-8b-8-6--------------------|
D|-------2-4/6--4-6----------------------------------------------------------|
A|--2/4---------------------------------------------------1-2-2-1------------|
E|-----------------------------------------------------------------4-2-------|

e|---------------------------------------------------------------------------|
B|---------------------------------------------------------------------------|
G|---------------------------------------------------------------------------|
D|---------------------------------------------------------------------------|
A|----------------------------------------------------------11-13-13-14------|
E|--2-0-2-2b-0-0-0-0-2-2-2-4-4-4-6-6-7-7-9-9-11-11-11-11b-9------------------|

e|---------------------------------------------------------------------------|
B|---------------------------------------------------------------------------|
G|-------------------11-11------11b-11---------------------------------------|
D|-----11-11-14--14---------14----------14--11---13-14-14-14--13--13---------|
A|--14-----------------------------------------------------------------------|
E|---------------------------------------------------------------------------|

e|---------------------------------------------------------------------------|
B|---------------------------------------------------------------------------|
G|---------------------------------------------------------------------------|
D|--11-11-11-11-11-11-13-14-14-13-14-13-11-11--11/13--13-13\11-11\9----------|
A|---------------------------------------------------------------------------|
E|---------------------------------------------------------------------------|

e|------------------|
B|------------------|
G|------------------|
D|------------------|
A|--9\8-8\6-6\4-4---|
E|------------------|


[CHORUS] 
                                             x3
e|---------------|----------------------------|------------------------------|
B|---------------|-.------------------------.-|------------------------------|
G|--6-6-6-6-6-6--|---2-2-2-2-2-2--------------|-2-2-2-2-2--------------------|
D|--6-6-6-6-6-6--|---2-2-2-2-2-2--4-4-4-4-4---|-2-2-2-2-2---R E S T----------|
A|--4-4-4-4-4-4--|-.-0-0-0-0-0-0--4-4-4-4-4-.-|-0-0-0-0-0--------------------|
E|---------------|----------------2-2-2-2-2---|------------------------------|


[VERSE]

e|---------------------------------------------------------------------------|
B|---------------------------------------------------------------------------|
G|--6-6-6-6-6---2-2-2----------------------2-2-2---4-4-4-4-------------------|
D|--6-6-6-6-6---2-2-2--4-4-4-4---6-6-6-6---2-2-2---4-4-4-4-------------------| x4
A|--4-4-4-4-4---0-0-0--4-4-4-4---6-6-6-6---0-0-0---2-2-2-2-------------------|
E|---------------------2-2-2-2---4-4-4-4-------------------------------------|


[CHORUS]  
                                             x3
e|---------------|----------------------------|------------------------------|
B|---------------|-.------------------------.-|------------------------------|
G|--6-6-6-6-6-6--|---2-2-2-2-2-2--------------|-2-2-2-2-2--------------------|
D|--6-6-6-6-6-6--|---2-2-2-2-2-2--4-4-4-4-4---|-2-2-2-2-2---R E S T----------|
A|--4-4-4-4-4-4--|-.-0-0-0-0-0-0--4-4-4-4-4-.-|-0-0-0-0-0--------------------|
E|---------------|----------------2-2-2-2-2---|------------------------------|


******************

b  Bend
/  Slide UP
\  Slide Down

******************
Suggest correction What's this?
You can suggest a correction to this tab. Community and Mods will review your correction and vote to approve or reject it.
comments
print report bad tab
28 comments total. Showing first comments.
0 reply
FenderGrl88 136 wrote on January 30 2005, 12:00 am

nice tab

0 reply
nirvana1991 58 wrote on April 8 2006, 11:47 am

nice tab, but this is the verse chorus verse version, sappy starts with a D5.

0 reply
Misterduke 18 wrote on April 12 2006, 06:56 am

nice tab

I want to post or [tab]
guest
You may want to rate the tab now too:
select rating
Please do not post tabs as comments. Select "correction" instead!