Oops, an error
Loading. Please wait.

Sappy Tab

version 3
version 3
12,126 views 1 this week
1 commentread comment
1 2 3 4 5
worth learning
x 7
add to favorites
launch autoscroll
font size
0
reset
how to read this tab
guitar tuner
Autoscroll
slow
fast
+/-
esc
set tempo
stop
Help us to improve Ultimate-Guitar.com Take our survey!
×
Contributor
SAPPY
Nirvana
Tabbed by:nidoking estoy_en_el_nirvana@hotmail.com

This is for the 2 guitar version ( electric and acoustic ) 

INTRO:( Both Guitars. Electric clean )

e|--------------------------------------------------------------------------|
B|--------------------------------------------------------------------------|
G|-8--8-8-8-8-8---4-4-4-------------------------4-4-4--6-6-6----------------|
D|-8--8-8-8-8-8---4-4-4--6-6-6---8--8-8-8-8-8---4-4-4--6-6-6----------------|
A|-6--6-6-6-6-6---2-2-2--6-6-6---8--8-8-8-8-8---2-2-2--4-4-4----------------|
E|-----------------------4-4-4---6--6-6-6-6-6-------------------------------|

VERSE:( Both Guitars. Electric distorted from now)

"And if you save yourself ..."
e|--------------------------------------------------------------------------|
B|--------------------------------------------------------------------------|
G|-8--8-8-8-8-8---4-4-4-------------------------4-4-4--6-6-6----------------|
D|-8--8-8-8-8-8---4-4-4--6-6-6---8--8-8-8-8-8---4-4-4--6-6-6----------------|
A|-6--6-6-6-6-6---2-2-2--6-6-6---8--8-8-8-8-8---2-2-2--4-4-4----------------|
E|-----------------------4-4-4---6--6-6-6-6-6-------------------------------|

CHORUS:
"Now... you're in a laundry room"
                                           x3
e|--------------|-----------------------------|------------------------|
B|--------------|-----------------------------|------------------------|
G|-8--8-8-8-8-8-|--4--4-4-4-4-4---------------|---4--4-4-4-4-4-~~~-----|
D|-8--8-8-8-8-8-|--4--4-4-4-4-4--6--6-6-6-6-6-|---4--4-4-4-4-4-~~~-----|
A|-6--6-6-6-6-6-|--2--2-2-2-2-2--6--6-6-6-6-6-|---2--2-2-2-2-2-~~~-----|
E|--------------|----------------4--4-4-4-4-4-|------------------------|

VERSE: 
"And if you kill yourself ..."

CHORUS:
"Now... you're in a laundry room"

SOLO: (While electric plays it, the acoustic plays verse)

e|--------------------------------------------------------------------------|
B|--------------------------------------------------------------------------|
G|-------------------4-4-6-6-6-8-8-8-8-8b-6-8-8b-8-6------------------------|
D|-------2-4/6--4-6---------------------------------------------------------|
A|-2-2/4----------------------------------------------1-0-1-2-2-0-----------|
E|-----------------------------------------------------------------3-1------|

e|--------------------------------------------------------------------------|
B|--------------------------------------------------------------------------|
G|--------------------------------------------------------------------------|
D|--------------------------------------------------------------------------|
A|----------------------------------------------------------11-13-13-14-----|
E|--2-0-0-2--0-0-0-0-2-2-2-4-4-4-6-6-8-8-9-9-11-11-11-11--------------------|

e|--------------------------------------------------------------------------|
B|--------------------------------------------------------------------------|
G|------------------------------11b-----------------------------------------|
D|-----11-11-13-14-14-13-13-14----------14--11---13-14-14-14--13--13--------|
A|--14----------------------------------------------------------------------|
E|--------------------------------------------------------------------------|

e|--------------------------------------------------------------------------|
B|--------------------------------------------------------------------------|
G|--------------------------------------------------------------------------|
D|--11-11-11-11-11-11-13-14-14-13-14-13-11-11--11/13--13-13\11-11\9---------|
A|--------------------------------------------------------------------------|
E|--------------------------------------------------------------------------|

e|------------------|
B|------------------|
G|------------------|
D|------------------|
A|--9\8-8\6-6\4-4---|
E|------------------|

CHORUS: (Both guitars. Electric turns volume up)
"Ah.. you're in a laundry room"

VERSE: (First 2 lines plays acoustic only. then electric with volume down)
"And if you save yourself      \
You will make him happy"       /   ACOUSTIC ONLY

CHORUS: (Played normally)
"Now... you're in a laundry room"



Lyrics:

And if you save yourself
You will make him happy
He'll keep you in a jar
And you'll think you're happy
He'll give you breathing holes
And you will feel happy      
He'll cover you with grass
And you'll think you're happy 

Now... you're in a laundry room
You're in a laundry room
You're in a laundry room
The clue just came to you, ah

And if you kill yourself
You will think you're happy
He'll keep you in a jar
Then you'll make him happy
He'll give you breathing holes
Then you'll think you're happy
He'll cover you with grass
Then you'll think you're happy 

Now you're in a laundry room
You're in a laundry room
You're in a laundry room
The clue that came to you, ah

You're in a laundry room
You're in a laundry room
You're in a laundry room
The clue that came to you, ah

And if you save yourself
You will make him happy
He'll keep you in a jar
Then you'll think you're happy
He'll give you breathing holes
Then you will seem happy
You'll wallow in his shit
Then you'll think you're happy 

Now... you're in a laundry room
You're in a laundry room
You're in a laundry room
The clue that came to you, ah
comments
print report bad tab
1 comment total.
0 reply
LedZepplin64 52 wrote on February 7 2005, 12:00 am

you dont need 2 guitars just a pedal =)

I want to post or [tab]
guest
You may want to rate the tab now too:
select rating
Please do not post tabs as comments. Select "correction" instead!