Oops, an error
Loading. Please wait.

Sappy Bass Tab

version 4
version 4

Whole song

Interactive

2,443 views 21 this week
1 commentread comment
1 2 3 4 5
excellent!
x 8
add to favorites
launch autoscroll
font size
0
reset
guitar tuner
Autoscroll
slow
fast
+/-
esc
set tempo
stop
Help us to improve Ultimate-Guitar.com Take our survey!
×
Author
----------------------------------------------------------------------------
                            Sappy - Nirvana
----------------------------------------------------------------------------
Tabbed by: twocanchu
E-mail: tucanchu27@yahoo.com

This sounds closer than anything I've found. Just learned it for a youtube collaboration 
video that I'll be playing bass and drums on.

Verse

G|------------------------------------------2-----4-----|
D|--------6---------------------------6-------2-----4---|
A|4--4-4-----4-0--0-2--------------6----6-0-----2-------|  2x
E|--------------------2-2-2-0-4--4----------------------|

G|------------------------------------------------------------------------|
D|--------6---------------------------------------------------------------|1x
A|4--4-4-----4-0--0-2-----------------------0-0-0-0-2-2-2-0-4--4-4--4-4-4-|
E|--------------------2-2-2-0-4--4-4--4-4-4-------------------------------|

Chorus

G|-----------------------------|      G|--------------|
D|-----------------------------|  3x  D|--------------|  1x
A|-----------------------------|      A|--------------|
E|5--5-5--4-5-4--2--2-2--2-2-4-|      E|5--5-5--5-5--4|

Verse

G|------------------------------------------2-----4-----|
D|--------6---------------------------6-------2-----4---|
A|4--4-4-----4-0--0-2--------------6----6-0-----2-------|  3x
E|--------------------2-2-2-0-4--4----------------------|

G|------------------------------------------------------------------------|
D|--------6---------------------------------------------------------------|1x
A|4--4-4-----4-0--0-2-----------------------0-0-0-0-2-2-2-0-4--4-4--4-4-4-|
E|--------------------2-2-2-0-4--4-4--4-4-4-------------------------------|

Chorus

G|-----------------------------|      G|--------------|
D|-----------------------------|  3x  D|--------------|  1x
A|-----------------------------|      A|--------------|
E|5--5-5--4-5-4--2--2-2--2-2-4-|      E|5--5-5--5-5--4|

Solo

G|------------------------------------------2-----4-----|
D|--------6---------------------------6-------2-----4---|
A|4--4-4-----4-0--0-2--------------6----6-0-----2-------|  3x
E|--------------------2-2-2-0-4--4----------------------|

G|------------------------------------------------------------------------|
D|--------6---------------------------------------------------------------|1x
A|4--4-4-----4-0--0-2-----------------------0-0-0-0-2-2-2-0-4--4-4--4-4-4-|
E|--------------------2-2-2-0-4--4-4--4-4-4-------------------------------|


Chorus

G|-----------------------------|      G|--------------|
D|-----------------------------|  3x  D|--------------|  1x
A|-----------------------------|      A|--------------|
E|5--5-5--4-5-4--2--2-2--2-2-4-|      E|5--5-5--5-5--4|

Verse

G|------------------------------------------2-----4-----|
D|--------6---------------------------6-------2-----4---|
A|4--4-4-----4-0--0-2--------------6----6-0-----2-------|  2x
E|--------------------2-2-2-0-4--4----------------------|

G|------------------------------------------------------------------------|
D|--------6---------------------------------------------------------------|1x
A|4--4-4-----4-0--0-2-----------------------0-0-0-0-2-2-2-0-4--4-4--4-4-4-|
E|--------------------2-2-2-0-4--4-4--4-4-4-------------------------------|

Chorus

Chorus

G|-----------------------------|      G|--------------|
D|-----------------------------|  4x  D|--------------|  1x
A|-----------------------------|      A|--------------|
E|5--5-5--4-5-4--2--2-2--2-2-4-|      E|5--5-5--5-5--4|

Work a little with the timing and it should be really close. Enjoy!
Suggest correction
comments
print report bad tab
1 comment total.
0 reply
jedrzej 10 wrote on December 8 2014, 08:23 am

Finally good version. Someone should make this ver1, and maybe just remove ver3...

guest
You may want to rate the tab now too:
select rating
Wanna post a correction for this tab? Suggest correction